20190317

AVE MARIA NO MORRO INSTRUMENTAL GUITAR TAB


Ave Maria No Morro instrumental guitar cover played by Roy Björklund
Easy guitar instrumental with backing track
Download the TAB under the video



AVE MARIA NO MORRO INSTRUMENTAL GUITAR TAB

GP5 + GP6 + PDF >>

Part 1

e-------9-------9-----9------------------9-------9-----9.---------------
B---------9---------------8~---------------9---------------8--\---------
G---9---------9-----9----------------9---------9-----9------------------
D-----------------------------------------------------------------------
A-----------------------------------------------------------------------
E-----------------------------------------------------------------------


e-----------------------------------------------------------------------
B-----------------------------------------------------------------------
G-----------------------------------------------------------------------
D--------------------------2--2~---------222----------2-4-2-2-----------
A---2---222-2~-------2-1-2-------------------4~---------------3~--------
E-----------------------------------------------------------------------


e-----------------------------------------------------------------------
B-----------------------------------------------------------------------
G-----------------------------------------------------------------------
D---2-4-2---------------------------------------------------------------
A---------2--2~---------222~-----2-4-4/6-\--2~~~------------------------
E-----------------------------------------------------------------------


e-----------------------------------------------------------------------
B-----------------------------------------------------------------------
G-----------------------------------------------------------------------
D---4--2--1-0--0~------4-2-1-0~---------4-2-1-2-------------------------
A------------------------------------------------4~---------------------
E-----------------------------------------------------------------------


e-----------------------------------------------------------------------
B-----------------------------------------------------------------------
G-----------------------------------------------------------------------
D---2-4-2-2----------2-4-2----------------------------------------------
A-----------3~-------------2--2~----------222~--------------------------
E-----------------------------------------------------------------------

 ... etc.