20190322

HELP ME MAKE IT THROUGH THE NIGHT TAB (FINGERSTYLE)


Help Me Make It Through The Night fingerstyle guitar cover by Chris Crouch
It's arranged in standard tuning and no Capo is used
Download the TAB under the video



HELP ME MAKE IT THROUGH THE NIGHT FINGERSTYLE TAB

GP5 + GP6 + PDF >>

e-----------2-2h3--2--0--2--------2-----------2-------------------------
B---------3-----------------------3-----------2-------------------------
G-------2-------------------2--------2-----2-----2----------------------
D---------------------------0-----------0-------------------------------
A-----------------------------------------------------------------------
E-----------------------------------------------------------------------


e---2---------5---------------------------------------------------------
B---1-----/7-----7~-----5-7-5.---3-----------------3--------------------
G---2----------------------------------0-----------2--------------------
D---0-------------------------------0-----------0-----------------------
A-----------------------------------------------------------------------
E--------------------------------3--------3--2--------2-----------------


e----------0--2--2/3--2--0--3-------------------------------------------
B----------0-------------------------2-----------3----------------------
G--------0---------------------------2----------------------------------
D------2--------------------------2-----2-----4-----4-------------------
A------------------------------0-----------0----------------------------
E---0-------------------------------------------------------------------



e-----------------------------2-----------------2-----------------------
B---5-----/8~---8-7--5--3--5--3--------3--------3-----2-----------------
G-----------------------------2-----2--------2-----2--------------------
D---5-------------------------0-----------------------2-----------------
A---0-------------------------------------0-----------0-----------------
E-----------------------------------------------------------------------

 ... etc.