20190331

STEVIE RAY VAUGHAN MARY HAD A LITTLE LAMB SOLO TAB (LIVE)


Stevie Ray Vaughan - Mary Had a Little Lamb live version recorded on 9/21/1985
Our solo part starts at 27:40 and goes up to 29:51 in this video
Download the TAB below



MARY HAD A LITTLE LAMB SOLO TAB

GP5 + GP6 + PDF >>

 - half-step down tuning -

 27:40 - 29:51

eb------------------------------12.-------------------------------------
Bb------------------------------12.-------------------------------------
Gb--12~-------------------------12.--------12--14(16)--(14)-p12--14--14-
Db---------14p12-----12--14.-----------14-------------------------------
Ab--------------14.-----------------------------------------------------
Eb----------------------------------------------------------------------


eb----------------------------------------------------------------------
Bb--12'-----------------------------------------------------------------
Gb--12'---------------------12'--------------12--14(16)--(14)--12'------
Db---------12h14.----14~---------14p12.--14-----------------------------
Ab----------------------------------------------------------------------
Eb----------------------------------------------------------------------


eb---------------------------------------------------------12-----------
Bb--------------------15---------------------------------12--15(17)-----
Gb--14--12--14--(16)------(16)--(14)--12'--14--12--14(16)---------------
Db----------------------------------------------------------------------
Ab----------------------------------------------------------------------
Eb----------------------------------------------------------------------



eb--12-------------------------------------------x-14--12---------------
Bb-----15-12-------------------------------------x-14--12---------------
Gb-----------14(16)-14-12--------x---------12~---x-14--12---------------
Db------------------------14~---14-12--14-------------------------------
Ab----------------------------------------------------------------------
Eb----------------------------------------------------------------------


eb---------------------12------12------12--15--12~----12~---------------
Bb-------------------------12------12-----------------------------------
Gb-------14(16)---------------------------------------------------------
Db---14-----------------------------------------------------------------
Ab----------------------------------------------------------------------
Eb----------------------------------------------------------------------


eb---12--15(17)--------15'----12------12--15'----(18)(15)'----12~-------
Bb--------------------------------12------------------------------------
Gb----------------------------------------------------------------------
Db----------------------------------------------------------------------
Ab----------------------------------------------------------------------
Eb----------------------------------------------------------------------


eb-----------------------------------------------------12--12-----------
Bb---15p12---------------------------12--------------12--12-------------
Gb--------14(16)---(14)p12-----12~---12------14(16)---------------------
Db------------------------14~----------14p12----------------------------
Ab----------------------------------------------------------------------
Eb----------------------------------------------------------------------


eb---15-12----12--------------------------------------------------------
Bb--------12------12--15p12----12---------------12~---  etc. ...  ------
Gb-------------------------14------12--14p12----12~---------------------
Db------------------------------------------14--------------------------
Ab----------------------------------------------------------------------
Eb----------------------------------------------------------------------






DOWNLOAD THIS TAB IN GUITAR PRO



  • click 'Free Download'
  • add your e-mail address
  • you will get an e-mail with your download links (in a few seconds)
  • download the Guitar Pro 6 tab + GP5 + PDF for free
  • and that's all ...


Guitar Pro: a complete workshop for guitarists at an affordable price