20190303

TEARS IN HEAVEN TAB (BOYCE AVENUE)


Eric Clapton - Tears In Heaven acoustic guitar cover played by Boyce Avenue
It's arranged in half-step down tuning (the original one is in standard)
Download the TAB under the video



TEARS IN HEAVEN TAB

GP5 + GP6 + PDF >>

Part 1

eb----------------------------------------------------------------------
Bb--------------2h3p2----5-------5.--2-----------2-------2-------2------
Gb----------2--------2.--4-------4.--2-----------2-------2-------2------
Db----------------------------------------------------------------------
Ab------0---------------------------------------------------------------
Eb--0h2------------------4-----------2-------2-------2.--0---0-------0--


eb----------------------------------------------------------------------
Bb---3-------3-------3-------3-------2-------2-------2-------2----------
Gb---2-------2-------2-------1-------2-------2-------2-------2----------
Db----------------------------------------------------------------------
Ab-----------------------------------0---0-------0-------0--------------
Eb---2---2-------2---0---0---0---0-------------------------------0h2----


eb----------------------------------------------------------------------
Bb-----------2h3p2----5-------5.--2-----------2-------2-------2---------
Gb-------2--------2.--4-------4.--2-----------2-------2-------2---------
Db----------------------------------------------------------------------
Ab---0------------------------------------------------------------------
Eb--------------------4-----------2-------2-------2.--0---0-------0-----



eb----------------------------------------------------------------------
Bb---3-------3--h5.--2-------2-------0-------0-------2-------3----------
Gb---2-------2-------2-------2-------1-------1-------2-------4----------
Db----------------------------------------------------------------------
Ab----------------------------------------------------------------------
Eb---2---2-----------0---0-------0---0---0-------0-------0-------0------

 etc ...