20190406

GUITAR BOOGIE TAB (MOCKIGBIRDRAVELLE)


Tommy Emmanuel - Guitar Boogie cover by Mockingbirdravelle
It's played in half-step down tuning on a Taylor acoustic guitar
Download the TAB under the video



GUITAR BOOGIE TAB

GP5 + GP6 + PDF >>

Part 1

eb-------5-----5-----5-----5-----5--------------------------------------
Bb---x-x-8-x-x-8-x-x-8-x-x-8-x-x-8--------------------------------------
Gb---x-x-6-x-x-6-x-x-6-x-x-6-x-x-6--------------------------------------
Db---x-x-5-x-x-5-x-x-5-x-x-5-x-x-5--------------------------------------
Ab---x-x-7-x-x-7-x-x-7-x-x-7-x-x-7---x----------------------------------
Eb-------5-----5-----5-----5-----5---6----------------------------------


eb----------------------------------------------------------------------
Bb----------------------------------------------------------------------
Gb-----7---x-6---5---4---4----------------------------------------------
Db-----6---x-5---4---3---3----------------------------------------------
Ab-----7---x-6---5---4---4----------------------------------------------
Eb---0-x---x-x---x---x---x--0-4---3-------------------------------------


eb---2-----2-----2-----2-----2------------------------------------------
Bb---5-x-x-5-x-x-5-x-x-x-x-x-x---x-x------------------------------------
Gb---3-x-x-3-x-x-3-x-x-2-x-x-2---x-x------------------------------------
Db---2-x-x-2-x-x-2-x-x-1-x-x-1---x-x------------------------------------
Ab---4-x-x-4-x-x-4-x-x-2-x-x-2---x-x------------------------------------
Eb---2-----2-----2------------------------------------------------------



eb----------------------------------------------------------------------
Bb-------5-----------------9--------8-----------------------------------
Gb-------7--------9--------9--------8-----------------------------------
Db---x---6--------8--x-x---8--------7-----------------------------------
Ab---7---7--x-x---x--x-9---9--x-x---x--x-2------------------------------
Eb----------x-9---9-----------x-7---7--x-0--h4p0h5p0h6p0h7.-------------


eb----------------------------------------------------------------------
Bb----------------------------------------------------------------------
Gb----------------------------------------------------------------------
Db-----------------------2--2-------------------------------------------
Ab---2---------2--2-4--2------4--4-2--2----2----------------------------
Eb---0--0-4--4--------------------------4-------------------------------


eb----------------------------------------------------------------------
Bb----------------------------------------------------------------------
Gb----------------------------------------------------------------------
Db----------------------------------------------------------------------
Ab-------------2--2-4--2-/5--5-4--4-2-----------------------------------
Eb---0--0-4--4-------------------------3'-------------------------------


eb----------------------------------------------------------------------
Bb----------------------------------------------------------------------
Gb----------------------------------------------------------------------
Db---2-----------2--2-4--2-/5----4--5-4--2----2-------------------------
Ab---0----0-4--4---------------------------4----------------------------
Eb----------------------------------------------------------------------


eb------0---------------------------------------------------------------
Bb----------------------------------------------------------------------
Gb----------------------------------------------------------------------
Db-----------------------2--2-------------------------------------------
Ab-------------2--2-4--2------4--4-2--2---------------------------------
Eb---0----4--4--------------------------4-------------------------------


eb----------------------------------------------------------------------
Bb----------------------------------------------------------------------
Gb----------------------------------------------------------------------
Db----------------------------------------------------------------------
Ab---0h2--2-4--4-5--5-4--4-2--2-0--0-----2------------------------------
Eb-----------------------------------3/4---3p2-2------------------------


eb----------------------------3----2--2----0----------------------------
Bb----------------------------x----x--x-x--0----------------------------
Gb----------------------------3----2--2-x--1----------------------------
Db----------------------------2----1--1-x--2----------------------------
Ab----------------------------3----2--2-x--2----------------------------
Eb---0--0-0--0-0--0-0--0-0--x-x----x--x----0----------------------------


 ... etc.






DOWNLOAD THIS TAB IN GUITAR PRO



  • click 'Free Download'
  • add your e-mail address
  • you will get an e-mail with your download links (in a few seconds)
  • download the Guitar Pro 6 tab + GP5 + PDF for free
  • and that's all ...