20190428

JOHN MAYER WORKED UP THIS COMBO BASS LINE RHYTHM STAB IDEA TAB


John Mayer plays a "combo bass line / rhythm stab" thing in his room
Sounds good with the Guthrie Govan signature guitar
Download the TAB under the video



JOHN MAYER COMBO BASS LINE RHYTHM STAB IDEA TAB

GP5 + GP6 + PDF >>

Part 1

e-------5-x---x-5-x---x-5-x---x-5-------5-x---x-5-x---x-5-x---x---------
B-------5-x---x-5-x---x-5-x---x-5-------5-x---x-5-x---x-5-x---x---------
G-------5-x---x-5-x-x-x-5-x---x-5-------5-x---x-5-x-x-x-5-x-x-x---------
D-------7-x---x-7-x-x-x-7-x---x-7-------7-x---x-7-x-x-x-7-x-x-x---------
A-------------------x-------------------------------x-------x-----------
E---5-----------------------------3/5---------------------------3-/-----


e-------5-x---x-5-x---x-5-x---x-5-------5-x---x-5-x---x-5-x---x-5-x-----
B-------5-x---x-5-x---x-5-x---x-5-------5-x---x-5-x---x-5-x---x-5-x-----
G-------5-x-x-x-5-x-x-x-5-x-x-x-5-------5-x-x-x-5-x-x-x-5-x-x-x-5-x-----
D-------7-x-x-x-7-x-x-x-7-x-x-x-7-------7-x-x-x-7-x-x-x-7-x-x-x-7-x-----
A-----------x-------x-------x---------------x-------x-------x-----------
E---5-----------------------------3/5-----------------------------------


Part 2

e-------5-x---x-5-x-----5-x-----5-x-----5-x-----5-x-----5-x-----5-x-----
B-------5-x---x-5-x-----5-x-----5-x-----5-x-----5-x-----5-x-----5-x-----
G-------5-x-x-x-5-x-----5-x-----5-x-----5-x-----5-x-----5-x-----5-x-----
D-------7-x-x-x-7-x---x-x-x-x-x-7-x-----7-x-x-x-x-x-x-x-x-x---x-7-x-----
A-----------x-------x-x-x---7-x-------------5-x-8---7-x-x---x-x---------
E---5---------------5---8-----------5-------------------8---5-----------



e-------5-x---x-5-x-----5-x-----5-x-----5-x-----5-x-----5-x-----5-x-----
B-------5-x---x-5-x-----5-x-----5-x-----5-x-----5-x-----5-x-----5-x-----
G-------5-x-x-x-5-x-----5-x-----5-x-----5-x-----5-x-----5-x-----5-x-----
D-------7-x-x-x-x-x---x-x-x-x-x-7-x-----7-x-x-x-x-x-x-x-x-x---x-x-x-----
A-----------x---7---x-x-x---7-x-------------5-x-8---7-x-x---x-x-7-------
E---5---------------5---8-----------5-------------------8---5-----------

 ... etc.






DOWNLOAD THE COMPLETE TAB HERE



  • click 'Free Download'
  • add your e-mail address
  • you will get an e-mail with your download links (in a few seconds)
  • download the Guitar Pro 6 tab + GP5 + PDF for free
  • and that's all ...


Guitar Pro: a complete workshop for guitarists at an affordable price