20190421

KILLING ME SOFTLY FINGERSTYLE TAB (ADAM RAFFERTY)


Roberta Flack - Killing Me Softly acoustic fingerstyle guitar cover by Adam Rafferty
It's arranged in standard tuning with Capo on the 1st fret
Download the TAB under the video



KILLING ME SOFTLY FINGERSTYLE TAB

GP5 + GP6 + PDF >>

 - Capo on the 1st fret -
Intro

e-------0-----0-------0-------0-----------------------------------------
B---3-----3-------3-------3---------------------------------------------
G-------------5-----------5---------------------------------------------
D-------4-------------4-------------------------------------------------
A---0-------------5-----------------------------------------------------
E-----------------------------------------------------------------------


e-------0-----0-------0-------0-----------------------------------------
B---3-----3-------3-------3---------------------------------------------
G-------------5-----------5---------------------------------------------
D-------4-------------4-------------------------------------------------
A---0-------------5-----------------------------------------------------
E-----------------------------------------------------------------------


e-------0-----0-------0-------0---------0-----0-------------------------
B---3-----3-------3-------3---------3-----3-------3---------------------
G-------------5-----------5-------------------5-------------------------
D-------4-------------4-----------------4-------------------------------
A---0-------------5-----------------0-------------5---------------------
E-----------------------------------------------------------------------



Verse

e-----------------0-----------------------0-----------------------------
B---------0---3-------3-------3---------------3---1-0--h1---------------
G-------2---5-------------2-------------0-----------------0-------------
D-----2---------------------0---------0---------------------------------
A---0-----------------------------------------------3-------3---2-------
E-------------------2-------------3-------------------------------------


e-----------------0-------0---0h2-2-2h3-2-0-----------------------------
B---------0---3---------3-----------0---------3---3h5~------------------
G-------2---5---------2-------2---------2-0-----------------------------
D-----2---------------------------------------4---4h5~------------------
A---0---------------2---------------------------------------------------
E-----------------------------------0-----------------------------------

 ... etc.






DOWNLOAD THIS TAB IN GUITAR PRO



  • click 'Free Download'
  • add your e-mail address
  • you will get an e-mail with your download links (in a few seconds)
  • download the Guitar Pro 6 tab + GP5 + PDF for free
  • and that's all ...


Guitar Pro: a complete workshop for guitarists at an affordable price