20190414

SPANISH TANGO TAB (SUARAGITAR)


Lennart Clerwall - Spanish Tango guitar cover played by "Suaragitar"
Vintage guitar instrumental with backing track
Download the TAB under the video



SPANISH TANGO TAB

GP5 + GP6 + PDF >>

Part 1

e-----------------------------------------------------------------------
B-----------------------------------------------------------------------
G---2---2-5/9~--------7-5-7---5---4~-------4----------------------------
D-----2--------------------------------------7-5/7-7~-------------------
A-----------------------------------------------------------------------
E-----------------------------------------------------------------------


e-----------------------------------------------------------------------
B-----------------------------------------------------------------------
G---2---2-5/9~--------7-5-7~----5h7p5-4~-------4------------------------
D-----2------------------------------------------7-5/7-7~---------------
A-----------------------------------------------------------------------
E-----------------------------------------------------------------------


e-----------------------------------------------------------------------
B-----------------------------------------------------------------------
G---5-4-----------------------------------------------------------------
D-------7~--------------------------------------------------------------
A-----------------------------------------------------------------------
E-----------------------------------------------------------------------



e-----------------------------------------------------------------------
B-----------------------------------------------------------------------
G-----------------------------------------------------------------------
D---2~-------------------0--2-3-5--3--2-0-2~----------------------------
A-----------------------------------------------------------------------
E-----------------------------------------------------------------------


e-----------------------------------------------------------------------
B-----------------------------------------------------------------------
G-----------------------------------------------------------------------
D-----------0-2--0----------------------------------0-----0-------------
A------2--3---------3-2-3~-------------------0--2-3----3-----2~---------
E-----------------------------------------------------------------------


e-----------------------------------------------------------------------
B-----------------------------------------------------------------------
G-----------------------------------------------------------------------
D---2~-------------------0--2-3-5--3--2-0-2~----------------------------
A-----------------------------------------------------------------------
E-----------------------------------------------------------------------


e-----------------------------------------------------------------------
B-----------------------------------------------------------------------
G-----------------------------------------------------------------------
D-----------0-2--0------------------------------3-2-0---------0~--------
A------2--3---------3-2-3~-------------------0---------3--2-3-----------
E-----------------------------------------------------------------------


e-----------------------------------------------------------------------
B--------------------5~--------------------5-6-5---------5--------------
G------------------------------------------------7-5-7-----7~-----------
D-----5-4-5-/7-5-4-5----------------------------------------------------
A-----------------------------------------------------------------------
E-----------------------------------------------------------------------

 ... etc.






DOWNLOAD THIS TAB IN GUITAR PRO



  • click 'Free Download'
  • add your e-mail address
  • you will get an e-mail with your download links (in a few seconds)
  • download the Guitar Pro 6 tab + GP5 + PDF for free
  • and that's all ...


Guitar Pro: a complete workshop for guitarists at an affordable price