20190512

BURNS ERNST WHEELS TAB


The String-A-Longs - Wheels guitar cover played by Burns Ernst
Vintage guitar instrumental with backing track
Download the TAB under the video



BURNS ERNST WHEELS TAB

GP5 + GP6 + PDF >>

Part 1

e-----------------------------------------------------------------------
B---------1---1---------1---1---------1---1-----------------------------
G--------2----2--------2----2--------2----2-------2---------------------
D-------3-------------3-------------3-----------------3-----------------
A------3-------------3-------------3----------------------3-------------
E---1-------------1-------------1-------------1-------------------------


e-----------------------------------------------------------------------
B-----------------------------------------------------------------------
G------------------------------------10----9-------7--------------------
D---7---------------10-----------7--------7------------10---7-----------
A---------------8------------------------8-----8----------------8-------
E-----------------------------------------------------------------------


e-----------------------------------------------------------------------
B-----------------------------------------------------------------------
G------------------------------------9----7-----------------------------
D---8---------------10-------------------8--------10---8--------8-------
A---------------7----------------7------7-----7-------------------------
E----------------------------------------------------------10-----------



e-----------------------------------------------------------------------
B-----------------------------------------------------------------------
G------------------------------------10----9-------7--------------------
D---7---------------10-----------7--------7------------10---7-----------
A---8-----------8------------------------8-----8----------------8-------
E-----------------------------------------------------------------------


e-----------------------------------------------------------------------
B-----------------------------------------------------------------------
G--------------------7--------------------------------------------------
D---8------------8-------10---------------------------------------------
A-------7---10---------------------7---8--------------------------------
E-----------------------------10----------------------------------------


e------------------------------------13----12--------10-----------------
B---10---\-----------13---------10--------10--------------13---10-------
G---------------10-----------------------10-----10------------------10--
D-----------------------------------------------------------------------
A-----------------------------------------------------------------------
E-----------------------------------------------------------------------


e----------------------------------12-------10--------------------------
B---11---\----------13-------------------------------13---11------------
G---------------9--------------9--------9--------9------------------9---
D--------------------------------------------------------------12-------
A-----------------------------------------------------------------------
E-----------------------------------------------------------------------

 etc ...






DOWNLOAD THIS TAB IN GUITAR PRO



  • click 'Free Download'
  • add your e-mail address
  • you will get an e-mail with your download links (in a few seconds)
  • download the Guitar Pro 6 tab + GP5 + PDF for free
  • and that's all ...