20190524

GUITAR BOOGIE BREAKDOWN TAB (DEDEPICK)


Guitar Boogie (breakdown) electric guitar cover played by 'dedepick'
Nice country blues guitar playing with an old Fender Telecaster
Download the TAB under the video



GUITAR BOOGIE BREAKDOWN TAB

GP5 + GP6 + PDF >>

Part 1

e---0---2-0-4-0-2-4-5-0-4-0-2-0---2-0---0-2-4-2-0-4-2-0-----------------
B-------------------------------4-----4-----------------4-2-0-0-2-4-----
G-----------------------------------------------------------------------
D-----------------------------------------------------------------------
A-----------------------------------------------------------------------
E-----------------------------------------------------------------------


e---0---2-0-4-0-2-4-5-0-4-0-2-0---2-0---0-2-4-2-0-4-2-0---2-0-0---------
B-------------------------------4-----4-----------------4-------2-4-----
G-----------------------------------------------------------------------
D-----------------------------------------------------------------------
A-----------------------------------------------------------------------
E-----------------------------------------------------------------------


e---0---4-0-7-0-4-7-0-7-4-0-7-0-4-7-------------------------------------
B-----------------------------------0---4-0-7-0-4-7-0-7-4-0-7-0-4-7-----
G-----------------------------------------------------------------------
D-----------------------------------------------------------------------
A-----------------------------------------------------------------------
E-----------------------------------------------------------------------



e---0---4-0-7-0-4-7-0-7-4-0-7-0-4-7-------------------------------------
B-----------------------------------0---4-0-7-0-4-7-5-4-5-7-5---\-------
G-----------------------------------------------------------------------
D-----------------------------------------------------------------------
A-----------------------------------------------------------------------
E-----------------------------------------------------------------------


e---0---4-0-7-0-4-7-0-10-7-0-10-0-7-10----------------------------------
B-----------------------------------------------------------------------
G-----------------------------------------------------------------------
D-----------------------------------------------------------------------
A-----------------------------------------------------------------------
E-----------------------------------------------------------------------


e-----------------------------------------------------------------------
B---0---4-0-7-0-4-7-0-10-7-0-10-0-7-10----------------------------------
G-----------------------------------------------------------------------
D-----------------------------------------------------------------------
A-----------------------------------------------------------------------
E-----------------------------------------------------------------------

 etc ...