20190504

KEITH RICHARDS ACOUSTIC BLUES TAB


Keith Richards plays a killer acoustic blues jam here with a single guitar
The first song starts at 0:05 and the second one around 0:51
Download the TAB under the video



KEITH RICHARDS ACOUSTIC BLUES TAB

GP5 + GP6 + PDF >>

Song 1 (32 20 Blues)

e---------9-----------------------8---8-------7---7---------------------
B--/8-----8-----------------------7---7-------6---6---------------------
G--/9-----9-----------------------8---8-------7---7---------------------
D-----------------------------------------------------------------------
A---------0-----0-----0-----0-----0-----0-----0-----0-------------------
E-----------------------------------------------------------------------


e---5.----5.----5.----5.----5.------------------------------------------
B---5.----8.----7.----6.----5.------------------------------------------
G-------------------------------------7-----7---------------------------
D-------------------------------------6-----6-----0---------------------
A---0-----0-----0-----0-----0-----7-----7-----7-------------------------
E-----------------------------------------------------------------------


e---------9~----------------------9.------------------------------------
B---------8~----------------------8.----7---8.----0---------------------
G---------9~----------------------9.----8---9.----0---------------------
D-----------------------------------------------------------------------
A---0-----0-----0-----0-----0-----0-----0-----0-------------------------
E-----------------------------------------------------------------------



e-------5-------3-2-------------3-3-----3---3---------------------------
B-------2-------2--2------------2-2-----2---2---------------------------
G-------------------2---------------------------------------------------
D-----------------------------------------------------------------------
A---0-----0---0-------3---4-0-----0---0-0-----0-------------------------
E-----------------------------------------------------------------------


e-----------------------------------------------------------------------
B---------1-----1-----------------0h1p0-0-------------------------------
G-------2-----2-----2-----------2------2----2---------------------------
D-----------------------------------------------------------------------
A-------------------------------------------------0---------------------
E-0-2-----2-----2-----2---1-2-----2-----2-----2-------------------------


e-------5-5-----3-----------------5---5---------------------------------
B-------------2-----5-3--p2-2.--------2---------------------------------
G-----------------------------------------------------------------------
D-----------------------------------------------------------------------
A---0-----0-----0-----0-----0---0-0-----0---0-0-------------------------
E-----------------------------------------------------------------------


e-----------10-9-----12--10p9-----------8-7-----10---8p7----------------
B---------------------------9--------------------------7----------------
G---------------------------9--------------------------7----------------
D---2--/9----9-9---9-9--------9---0-7---7-7---7-7--------7--------------
A-----------------------------------------------------------------------
E-----------------------------------------------------------------------


e---------0-0---0-0---0-0---0-0---------------0-------------------------
B-----------------------------------------------------------------------
G---------------------------------------------------0-------------------
D-----------5---5-4---4-3---3-2-----------------------------------------
A---0-0-----------------------------------------------0.----------------
E---------------------------------0-3'--0-0-----0-----------------------






DOWNLOAD THIS TAB IN GUITAR PRO



  • click 'Free Download'
  • add your e-mail address
  • you will get an e-mail with your download links (in a few seconds)
  • download the Guitar Pro 6 tab + GP5 + PDF for free
  • and that's all ...