UNBREAK MY HEART TAB (ACOUSTIC FINGERSTYLE)


Toni Braxton - Unbreak My Heart fingerstyle guitar cover by Alexander Chekmarev
It's arranged in standard tuning and no Capo is needed
Download the TAB under the video



UNBREAK MY HEART FINGERSTYLE TAB

PDF + GUITAR PRO >>

Intro

e-----------------------------------------------------------------------
B---------------0-------2-------3---------------------------------------
G---3-------------------------------------------------------------------
D-----------4---------------4-------------------------------------------
A-------4-----------4---------------------------------------------------
E---2-------------------------------------------------------------------


e-----------------------0---2---3---------------------------------------
B-------------------3-------------------------------0--h2--h3---3-------
G---------------4-------------------------------0-----------------------
D-----------4-------------------------------2---------------------------
A---2-------------------------------------------------------------------
E-----------------------------------0-----------------------------------


e-----------------------------------------------------------------------
B---------------2-----------0-------------------0-------2-------2-------
G-----------2-----------------------3-----------------------------------
D-------2---------------2-------------------4---------------4-----------
A---0---------------0-------------------4-----------4-------------------
E-----------------------------------2-----------------------------------



e-----------------------------------------------------------------------
B---------------------------2h3p2p0----------------------0--------------
G---------------0-------0------------------------0-----------0----------
D-----------0-------0------------------------0-------0-----------0------
A-----------------------------------------------------------------------
E---3---------------------------------3---------------------------------


e-----------------------------------------------------------------------
B---0-------------------------------------------------------------------
G-----------3-----------------------------------3-----------------------
D---------------4-------2-----------2--h4-------------------------------
A-------4-----------4-------4-------4-----------------------------------
E---2---------------------------2-----------2---------------------------


Verse

e-----------------------------------------------------------------------
B-------------------------------0---------------3-----------------------
G---------------4-----------4---------------0---------------0-----------
D-----------4-----------4---------------0---------------0-------0-------
A---2---------------2---------------------------------------------------
E-----------------------------------3---------------3-------------------

 ... etc.