20190623

GAME OF THRONES THEME FINGERSTYLE TAB


The Game of Thrones theme acoustic fingerstyle guitar arragement by SASO
It's in standard tuning with Capo on the 3rd fret
Download the TAB under the video



GAME OF THRONES THEME FINGERSTYLE TAB

GP5 + GP6 + PDF >>

 - CAPO on the 3rd - 

e---0-----------0-----------0-----------0-------------------------------
B-----------1h3---------1h3---------1h3---------1h3---------------------
G-------2-----------2-----------2-----------2---------------------------
D-----------------------------------------------------------------------
A---0-------------------------------------------------------------------
E-----------------------------------------------------------------------


e---0-----------0-----------0-----------0-------------------------------
B-----------2h3---------2h3---------2h3---------2h3---------------------
G-------2-----------2-----------2-----------2---------------------------
D-----------------------------------------------------------------------
A---0-----------0-----------0-----------0-------------------------------
E-----------------------------------------------------------------------


e---0---------------------------0---------------------------------------
B-------1-------------------1h3-----------------1h3---------------------
G---------------2-----------------------2-------------------------------
D-----------2-----------2-----------2-------2---------------------------
A---0-----------0-----------0-----------0-------------------------------
E-----------------------------------------------------------------------



e-----------------------------------------------------------------------
B---0-----------0-----------0-----------0-------------------------------
G-----------0h2---------0h2---------0h2---------0-----------------------
D-------2-----------2-----------2-----------2---------------------------
A-----------------------------------------------------------------------
E---0-----------0-----------0-----------0-------------------------------


e-----------------------------------------------------------------------
B---3-----------------------1p0h3---------------------------------------
G---------------0-----------------------0-------------------------------
D-----------0-----------0-----------------------0-----------------------
A-------2-----------2---------------2-------2---------------------------
E---3-----------3-----------3-----------3-------------------------------


e-----------------------------------------------------------------------
B-----------------------------------------------------------------------
G---5p4---------2-----------2-----------2-------------------------------
D-------0--h3h5-----0--h3h5-----0--h3h5-----0---------------------------
A---0-----------0-----------0-----------0-------0-----  ... etc.  ------
E-----------------------------------------------------------------------