20190628

I WILL ALWAYS LOVE YOU TAB (FINGERSTYLE)


Dolly Parton - I Will Always Love You easy fingerstyle guitar cover by kchan9999
It's arranged in standard tuning with Capo on the 2nd fret
Download the TAB under the video



I WILL ALWAYS LOVE YOU FINGERSTYLE TAB

GP5 + GP6 + PDF >>


 - CAPO on the 2nd fret -
Part 1

e---------3-----------0-----------0-------------2-----------------------
B---------3-----------0-----------1-------------3----------1-/3---------
G------4-----------0-----0-----0-------------2--------------------------
D---5--------4--2-----------2--------2--2/4-----------------------------
A---------------------------3-------------------------------------------
E-----------------------------------------------------------------------


e-----------------------------------------------------------------------
B---0--------------------1--0-------------------------------------------
G---------0-----------2-----------0-----------2h4--2--------------------
D------0-----0-----0-----------0-----0-----0----------------------------
A-----------------------------------------------------------------------
E---3-----------2-----------3-----------2-------------------------------


e-----------------------------------------------------------------------
B------------0--0--------3/5-5-----5-----3-----1-/3---------------------
G---2-p0-----------0---------------5-----2------------------------------
D-------------------------------5-----5--0------------------------------
A---------2------------------3------------------------------------------
E---0-----------0-----0-------------------------------------------------



e-----------------------------------------------------------------------
B---0--------------------0h1--0-----------------------------------------
G---------0-----------2-------------0-----------2h4--2------------------
D------0-----0-----0-------------0-----0-----0--------------------------
A-----------------------------------------------------------------------
E---3-----------2-------------3-----------2-----------------------------


e----------------------------0-----0------------------------------------
B------------0-----------0h3-------1-----3h5p3--------------------------
G---2-p0--------2-p0------------------0--2------------------------------
D-------------------------------2--------0------------------------------
A---------2------------------3------------------------------------------
E---0-----------0-----0-------------------------------------------------


e---3--3--------3/5--3---------3-3--------0--2----2h3--3/5--------------
B------------0-------------0-----------1--------3-----------------------
G---------0-------------0-----------0-----------------------------------
D--------------------------------------------0--------------------------
A--------------------------------3--------------------------------------
E------3-------------0--------------------------------------------------

 ... etc.






DOWNLOAD THIS TAB IN GUITAR PRO



  • click 'Free Download'
  • add your e-mail address
  • you will get an e-mail with your download links (in a few seconds)
  • download the Guitar Pro 6 tab + GP5 + PDF for free
  • and that's all ...


Guitar Pro: a complete workshop for guitarists at an affordable price