20190601

MARCO SISON ALWAYS TAB (ACOUSTIC COVER)


Marco Sison - Always acoustic cover by Piwee Polintan and Merlin Discipulo
It's a piano song arranged to acoustic guitar in half-step down tuning
Download the TAB under the video



MARCO SISON ALWAYS ACOUSTIC TAB

GP5 + GP6 + PDF >>

 - half-step down tuning -

Part 1

eb-----------------------------------0-----------------------3----------
Bb---------------3--3h5--3-------------------3-------1-------3----------
Gb-----------5---------------4---5.------0-------0-----------4----------
Db-------5---------------------------------------------------5----------
Ab---3-------------------------------------------------------5----------
Eb-----------------------------------1---------------1-------3----------


eb-------------------3--------------------------------------------------
Bb---------------3-------3-----------------------3----------------------
Gb-----------5---------------5---------------5-------5-----4-----5------
Db-------5-------------------------------5------------------------------
Ab---3-------------------------------3----------------------------------
Eb-------------------------------3--------------------------------------


eb---0-------0-----------------------0----------------------------------
Bb---------------1-----------0---1-----------3-------1-------3----------
Gb-------2---------------2---------------0-------0-------0-------0------
Db----------------------------------------------------------------------
Ab----------------------------------------------------------------------
Eb---1---------------1---------------1---------------1-------0----------



eb----------------------------------------------------------------------
Bb---------------5--5h6--5-----------------------5---5h6----------------
Gb-----------7---------------7---------------7-------7-------7----------
Db-------7-------------------------------7-----------7-----------0------
Ab---5-------------------------------5---------------5------------------
Eb-------------------------------5--------------------------------------


eb-------------------3---------------------------------------3----------
Bb-----------3-----------3-------------------3-------3-------3----------
Gb-------0-------0-----------0-----------4-----------4-------4----------
Db---------------------------------------------------3------------------
Ab------------------------------/5-------------------5-----------5------
Eb---3-------------------------------3-----------3---3------------------

 ... etc.






DOWNLOAD THIS TAB IN GUITAR PRO



  • click 'Free Download'
  • add your e-mail address
  • you will get an e-mail with your download links (in a few seconds)
  • download the Guitar Pro 6 tab + GP5 + PDF for free
  • and that's all ...


Guitar Pro: a complete workshop for guitarists at an affordable price