20190615

SECRET LOVE INSTRUMENTAL GUITAR TAB (MARK ALLEN)


Doris Day - Secret Love instrumental guitar cover by Mark Allen
Amazing electric guitar arrangement with backing track
Download the TAB under the video



MARK ALLEN SECRET LOVE TAB

GP5 + GP6 + PDF >>

Verse  (at ~ 0:48)

e-----------------------------------------------------------------------
B---9/11~--------8h9-8~-------------------------------------------------
G------------------------8---10---10/12---------------------------------
D-----------------------------------------8~~~--------------------------
A-----------------------------------------------------------------------
E-----------------------------------------------------------------------


e-----------------------------------------------------------------------
B-------------------------8~--9---11---11/13----------------------------
G--------7/8~--------8h10----------------------10~------\---------------
D---8-10----------------------------------------------------------------
A-----------------------------------------------------------------------
E-----------------------------------------------------------------------


e-----------------------------------------------------------------------
B------8-8h9-9~-----8h9p8-----------------------------------------------
G---10-------------------10~---7---7h8---8/10-----10/12\10--p8---8/10~--
D---------------------------------------------8-------------------------
A-----------------------------------------------------------------------
E-----------------------------------------------------------------------



e-----------------------------------------------------------------------
B-----------------------------------------------------------------------
G--------7~--h8.-----8h10-10~---10/12.--8--7-/8~~~----------------------
D---8-10----------------------------------------------------------------
A-----------------------------------------------------------------------
E-----------------------------------------------------------------------

 etc ...