20190719

HANK THE KNIFE DIAMONDS TAB


Hank The Knife - Diamonds is a vintage western instrumental guitar song
It's in 1 step down tuning (so tune down each string with 2 frets)
This record is on the album "Crazy Guitar" from 1980
Download the TAB under the video



HANK THE KNIFE DIAMONDS TAB

GP5 + GP6 + PDF >>

- 1 step down tuning -
Part 1

D-----------------------------------------------------------------------
A-----------------------------------------------------------------------
F-----------------------------------------------------------------------
C-------------------2-----0---------------------------------------------
G-----------2---------------2-------0-----------------------------------
D---0---3-------------------------------3-------------------------------


D-----------------------------------------------------------------------
A-----------------------------------------------------------------------
F-----------------------------------------------------------------------
C-----------------------------------------------------------------------
G---0-------0-------0---2---0-------------------------------------------
D-----------------3-------------3---------------------------------------


D-----------------------------------------------------------------------
A-----------------------------------------------------------------------
F-----------------------------------------------------------------------
C-----------------------------------------------------------2-----------
G---0-------0-------0---2---0-----------------------2-------------------
D-----------------3-------------3---0-------3---------------------------



D-----------------------------------------------------------------------
A-----------------------------------------------------------------------
F---0-------0-------0-------0-0-----------------------------------------
C---------2-------2-------2-----2---0---------------0-------------------
G-------------------------------------------2---------------2-----------
D-----------------------------------------------------------------------


D-----------------------------------------------------------------------
A-----------------------------------------------------------------------
F-----------------------------------------------------------------------
C-----------2-----------------------------------------------------------
G-------1h2-------2-1---1---1-0-----0---0---0-------0---0---0---0-------
D-------------------------------3-------------3-2-------------3---------


D-----------------------------------------------------------------------
A-----------------------------------------------------------------------
F-----------------------------------------------------------------------
C-------------------4~--------------2~~~--------------------------------
G-------2-2-5-3-2-------------------------------------------------------
D-----------------------------------------------------------------------


 etc ...





DOWNLOAD THIS TAB IN GUITAR PRO



  • click 'Free Download'
  • add your e-mail address
  • you will get an e-mail with your download links (in a few seconds)
  • download the Guitar Pro 6 tab + GP5 + PDF for free
  • and that's all ...


Guitar Pro: a complete workshop for guitarists at an affordable price