20190728

LAURA COX COUNTRY SOLO TAB (BIAS FX STANDALONE)


Laura Cox shows us her country, blues and rock presets on Bias FX Standalone
She plays a killer country solo at 1:58 with a strange Telecaster
Download the TAB under the video



LAURA COX BIAS FX COUNTRY SOLO TAB

GP5 + GP6 + PDF >>

 (1:58 - 2:28)

e-----------------------------------------------------------------------
B-----------------------------------------------------------------------
G-----------------------------------------------------------------------
D-----------------------------------------------------------------------
A-----------------------------------------------------------------------
E---2(3)---(3)(3)(3)(3)(3)(3)(3)(3)(3)(3)-2(3)(2)~---0------------------
            x  x  x  x  x  x  x  x  x  x


e-----------------------------------------------<12>--------------------
B-----------------------------------------------<12>--------------------
G-----------------------------------------------------------------------
D-----------------------------------------------------------------------
A-----------------------------------------------------------------------
E---0-0-/12---0-0-/12---0-0-/12---0---/12---0---------------------------

   
e-----------------------------------------------------------------------
B--------------------------------------------------------5.--5~------\--
G--------------------------------------------------4-5-6----------------
D--------------------------------2.--2~------4-5-6----------------------
A--------------------------2-3-4----------------------------------------
E---12-\-----0---0-0-2-3-4----------------------------------------------
                 x x x x x x x x x           x x x x x x x



e----------7.--5----------------7---5----------------7---5--------------
B---7(9)--------(9)(7)p5-7(9)----(9)-(9)(7)p5-7(9)----(9)-(9)(7)p5------
G---x-------------------------------------------------------------------
D-----------------------------------------------------------------------
A-----------------------------------------------------------------------
E-----------------------------------------------------------------------


e---------------5-------5-------5---------------------------------------
B---7~------5---------------------------5-----5-----5-----5-----5-------
G-------------------7-------6-------6h7---6h7---6h7---6h7---6h7---------
D-----------------------------------------------------------------------
A-----------------------------------------------------------------------
E-----------------------------------------------------------------------

 etc ...






DOWNLOAD THE COMPLETE SOLO TAB HERE



  • click 'Free Download'
  • add your e-mail address
  • you will get an e-mail with your download links (in a few seconds)
  • download the Guitar Pro 6 tab + GP5 + PDF for free
  • and that's all ...


Guitar Pro: a complete workshop for guitarists at an affordable price