20190707

MANU CHAO EL CONTRAGOLPE TAB (LIVE ACOUSTIC)


Manu Chao - El Contragolpe live acoustic version played by Madjid and Manu
All the acoustic guitar solo parts are transcribed (Madjid's part)
Download the TAB under the video



EL CONTRAGOLPE ACOUSTIC SOLO TAB

GP5 + GP6 + PDF >>

Intro solo

e---5--------------7~--7~--7-8p7h8p7p5-7~~~-----------------------------
B---5----------5-6------------------------------------------------------
G---5-------------------------------------------------------------------
D---7-------------------------------------------------------------------
A-----------------------------------------------------------------------
E-----------------------------------------------------------------------


e--------5-7-8-8-8-8p7-7-7p5-5---5---5.--5-7p5-5-7-7---7-7\--5-5\--3-3-x
B---5-6-8--------------------------------------------------------------x
G----------------------------------------------------7-----5-----4-----x
D-----------------------------------------------------------------------
A-----------------------------------------------------------------------
E-----------------------------------------------------------------------


e----5-7-8-7---5--------------------------------------------------------
B---5------------8-6---5-------5-6p5-6p5---5~--5~-----------------------
G--5---------------------7-5\4-----------7------------------------------
D-----------------------------------------------------------------------
A-----------------------------------------------------------------------
E-----------------------------------------------------------------------



e--------8-8-7-7-8-10-10-10-8-7-8~--8~--8~~~----------------------------
B---5/10----------------------------------------------------------------
G-----------------------------------------------------------------------
D-----------------------------------------------------------------------
A-----------------------------------------------------------------------
E-----------------------------------------------------------------------


e---8-7---7-7---10-8-7-7---10-8-7----7~--7-8-7--------------------------
B------10-----8----------8--------10------------------------------------
G-----------------------------------------------------------------------
D-----------------------------------------------------------------------
A-----------------------------------------------------------------------
E-----------------------------------------------------------------------


e---8-8-7-8~--7-7-8-8-7-8-8-8p7-10-10-10p7-8-/12~--12~------------------
B-----------------------------------------------------------------------
G-----------------------------------------------------------------------
D-----------------------------------------------------------------------
A-----------------------------------------------------------------------
E-----------------------------------------------------------------------


e---12~--11-12-13-12-11-12-13-12-12-12-12~--12~--12---------------------
B-----------------------------------------------------------------------
G-----------------------------------------------------------------------
D-----------------------------------------------------------------------
A-----------------------------------------------   etc ...   -----------
E-----------------------------------------------------------------------