20190803

YESTERDAY ACOUSTIC FINGERSTYLE TAB (ADAM RAFFERTY)


The Beatles - Yesterday acoustic fingerstyle guitar cover by Adam Rafferty
It's arranged in standard tuning and no Capo is used
Download the TAB under the video



ADAM RAFFERTY YESTERDAY TAB

GP5 + GP6 + PDF >>

Part 1

e-----------------------------------------------------------------------
B-----------------------------------------------------------------------
G-------0---0---0-------0---0---0-------0---0---0-------0---0---0-------
D-------0---0---0-------0---0---0-------0---0---0-------0---0---0-------
A-----------------------------------------------------------------------
E---3---------------3---------------3---------------3-------------------


e--------------------------------------------------------0---2---3------
B--------------------------------------------0---2-/-4-----------0------
G---0h2-p0-0---------------------------------2-----------0---2----------
D------------0---0-------0---0---0-------2------------------------------
A----------------------------------------------------2------------------
E-----3--------------3---------------2----------------------------------


e---2h3p2-----0---0---------------------------0---0---------------------
B-----------------------------------------------------3--p1---0---------
G---2---------0---0-------0-------0-----------0-------------------2-----
D---------2-----------2-------0-----------2-----------0-----------------
A-------------------------------------3---------------------------------
E---0---------------------------------------------------------2---------



e-----------------------------------------------------------------------
B---1-------0---0---------------------------0---------------------------
G-----------0---0---------------2---0-----------2-----------------------
D------(4)----------------------1------(0)------------------------------
A-----------------------------------------------4-----------------------
E---3---------------3-------2-------0---------------5-------------------


e-----------------------------------------------------------------------
B---------------0---0---------------------------------------------------
G-------0---------------------------------------------------------------
D---0h2-----------------------------------------------------------------
A-------3--------------------------------------------    etc ...    ----
E---------------3---3---------------------------------------------------






DOWNLOAD THIS TAB IN GUITAR PRO



  • click 'Free Download'
  • add your e-mail address
  • you will get an e-mail with your download links (in a few seconds)
  • download the Guitar Pro 6 tab + GP5 + PDF for free
  • and that's all ...