20190831

MY FUNNY VALENTINE CLASSICAL GUITAR TAB


Richard Rodgers - My Funny Valentine classical guitar cover by Tetsushige Yuguchi
It's arranged in standard tuning and no Capo is used
Download the TAB under the video



MY FUNNY VALENTINE TAB

GP5 + GP6 + PDF >>

Part 1

e---0--1--3-----------------0--1--3-------------------------------------
B---------------0-----------------------1-------------------------------
G------------0-----0-----------------2-----2----------------------------
D---------------------------------0-------------------------------------
A---------3-------------------------------------------------------------
E-----------------------------------------------------------------------


e---0--1--3-----------------0--1--0-------------------------------------
B---------------3--------------------------1----------------------------
G------------4-----4--------------------2-------------------------------
D---------2--------------------------3----------------------------------
A-----------------------------------------------------------------------
E---------------------------------3-------------------------------------


e---0--1--3-----------------0--1--3-------------------------------------
B---------------0-----------------------1-------------------------------
G------------0-----0-----------------2-----2----------------------------
D---------------------------------0-------------------------------------
A---------3-------------------------------------------------------------
E-----------------------------------------------------------------------



e---0--1--3-----------------0--1--0--------0--3--1--0-------------------
B---------------3-----------------------3-----3--------3----------------
G------------4-----4-----------------2--------1-------------------------
D---------2-------------------------------------------------------------
A---------------------------------2-------------------------------------
E---------------------------------------------0-------------------------


e-----------------------------------------------------------------------
B---1~-----0--1.--0---0-------------------0--1.--0-1-0------------------
G-------2-----------5------------------2---------2----------------------
D-----------------2-----------------2------------1----------------------
A---0-------------------------------------------------------------------
E-----------------4-----------------3------------2----------------------


e----------------3------1--0----------0---------------3~--1-------------
B---------0--1.-------1-------3-----3---3-----------1-------------------
G------2-------------2-2----------2-------2-------1---------------------
D---2------------0--------------3-----------3---0-----------------------
A-----------------------------2-----------------------------------------
E---1-----------------------------------------0-------------------------

 etc ...






DOWNLOAD THIS TAB IN GUITAR PRO



  • click 'Free Download'
  • add your e-mail address
  • you will get an e-mail with your download links (in a few seconds)
  • download the Guitar Pro 6 tab + GP5 + PDF for free
  • and that's all ...


Guitar Pro: a complete workshop for guitarists at an affordable price