20190823

VELVET REVOLVER WISH YOU WERE HERE SOLO TAB (LIVE)


Velvet Revolver - Wish You Were Here live version with a great Slash guitar solo
It's in half step-down tuning and it's between 3:45 and 4:15 on this record
Download the TAB under the video



SLASH WISH YOU WERE HERE SOLO TAB

GP5 + GP6 + PDF >>

 (3:45 - 4:15)

   Em7 
eb---------------10-----------------------------------------------------
Bb---10(12)-10p8----10(12)----------------------------------------------
Gb----------------------------------------------------------------------
Db----------------------------------------------------------------------
Ab----------------------------------------------------------------------
Eb----------------------------------------------------------------------


                       G
eb----------------------------------------------------------------------
Bb---10(12)---10(12)---10(12)-(10)p8-10---------------------------------
Gb--------------------------------------9(11)~~~------------------------
Db----------------------------------------------------------------------
Ab----------------------------------------------------------------------
Eb----------------------------------------------------------------------


           Em7                                                   G
eb---7.-----------------------------------------------10----------------
Bb------8.-7---8(10)~-------------10(12)----------------(12)(10)-8~-----
Gb-----------9----------------------------------------------------------
Db----------------------------------------------------------------------
Ab----------------------------------------------------------------------
Eb----------------------------------------------------------------------



                                                      Em7
eb---10(12)-----10-7-10----------10-------------------------------------
Bb---------------------(12)(10)p8---10(12)---10(12)---10(12)~-----------
Gb----------------------------------------------------------------------
Db----------------------------------------------------------------------
Ab----------------------------------------------------------------------
Eb----------------------------------------------------------------------


eb-----------------------10-----------10-----------10-------------------
Bb---(12)(10)p8-10(12)-----10(12)-------10(12)-------10(12)(10)p8-------
Gb----------------------------------------------------------------------
Db----------------------------------------------------------------------
Ab----------------------------------------------------------------------
Eb----------------------------------------------------------------------


     A7sus4
eb--------------12~---------12------------------------------------------
Bb---12(14)--------(14)~------(14)(12)-10~--------12(14)----------------
Gb----------------------------------------------------------------------
Db----------------------------------------------------------------------
Ab----------------------------------------------------------------------
Eb----------------------------------------------------------------------


          Em7
eb------------------10--------10----10--10--10(12)----10-7-10-----------
Bb-----8-10-(12)------(12)-----------------------------------(12)(10)p8-
Gb--/9------------------------------------------------------------------
Db----------------------------------------------------------------------
Ab----------------------------------------------------------------------
Eb----------------------------------------------------------------------


     A7sus4
eb--------------------12---------12-------12----------------------------
Bb---12(14)-------------(14)-------(14)-----(14)(12)-10h12-10(12)(10)p8-
Gb----------------------------------------------------------------------
Db----------------------------------------------------------------------
Ab----------------------------------------------------------------------
Eb----------------------------------------------------------------------

  
     G
eb--------------10-----------10-----------------------------------------
Bb---10(12)-------10(12)-------10-(12)~~~-------------------------------
Gb----------------------------------------------------------------------
Db----------------------------------------------------------------------
Ab----------------------------------------------------------------------
Eb----------------------------------------------------------------------





DOWNLOAD THIS SOLO TAB IN GUITAR PRO



  • click 'Free Download'
  • add your e-mail address
  • you will get an e-mail with your download links (in a few seconds)
  • download the Guitar Pro 6 tab + GP5 + PDF for free
  • and that's all ...


Guitar Pro: a complete workshop for guitarists at an affordable price