20190817

THE STEELMEN STILL TAB


The Steelmen - Still is a vintage guitar instrumental song from the '50s
The main guitar solo line is transcribed
Download the TAB under the video



THE STEELMEN STILL TAB


Part 1
          G                                         C
e-----------------------------------------------------------------------
B-----------------------------------------------------------------------
G-----------------------------------------------------------------------
D---------------------------5---5-3---3-2---2---------------------------
A---------2---2-5---5-2---2-------------------5---5-3-------------------
E---3---3---------------------------------------------------------------
    x   x x   x x   x x   x x   x x   x x   x x   x x


    C
e-----------------------------------------------------------------------
B-----------------------------------------------------------------------
G-----------------------------------------------------------------------
D----------2-----5---2.---------------5---2.----------------------------
A-----------------------------------------------------------------------
E-----------------------------------------------------------------------


                              G
e-----------------------------------------------------------------------
B-----------------------------------------------------------------------
G-----------5-----4-----------------------------------------------------
D---2-5.----------------5-----3-----------------------------------------
A-----------------------------------------------------------------------
E-----------------------------------------------------------------------



    G
e-----------------------------------------------------------------------
B-----------------------------------------------------------------------
G-----------------------------------------------------------------------
D---3------------------3------------------------------------------------
A-------5.-----------------5.-------------------------------------------
E-----------------------------------------------------------------------


                                  C
e-----------------------------------------------------------------------
B-----------------------------------------------------------------------
G---------------5-----4-------------------------------------------------
D-------2-3-----------------5-\---2-------------------------------------
A---5-------------------------------------------------------------------
E-----------------------------------------------------------------------


        C
e-----------------------------------------------------------------------
B---------------------------------5-------------------------------------
G-------------------2-------5.------5-----------------------------------
D---2---5-------------5.------------------------------------------------
A-----------------------------------------------------------------------
E-----------------------------------------------------------------------


    F                                                   G
e-----------------------------------------------------------------------
B-----------------------------------------------------------------------
G---7---5---------------7-----5-----------5-7---------5-4---------------
D-------------------------------7---------------------------5-----------
A-----------------------------------8.----------------------------------
E-----------------------------------------------------------------------


                                  C
e-----------------------------------------------------------------------
B-----------------------------------------------------------------------
G-----------------------------------------------------------------------
D---5-7.--3-5.----2---3-------------------------------------------------
A---------------------------5-----3-------------------------------------
E-----------------------------------------------------------------------


 etc ...