20190915

ACOUSTICIAN FADE TO BLACK SOLO TAB (JUHA JARVINEN)


Metallica - Fade To Black acoustic guitar solo cover played by Acoustician
It's in standard tuning with a rhythm guitar backing track
Download the TAB under the video



FADE TO BLACK ACOUSTIC SOLO TAB

GP5 + GP6 + PDF >>


e-----------------------------------------------------------------------
B-----------------------------------------------------------------------
G-----------5-7-7/9-x-9~-----9~-----9~---\-7p5-7~-----------------------
D------/7-7-------------------------------------------------------------
A-----------------------------------------------------------------------
E-----------------------------------------------------------------------


e-----------------------------------------------------------------------
B-----5-5h6--5-----5h6--5-----5h6--5-----6/8~---------------------------
G---7-----------5----------5----------5---------------------------------
D-----------------------------------------------------------------------
A-----------------------------------------------------------------------
E-----------------------------------------------------------------------


e-------5---------------------------------------------------------------
B---6-8----8--6-6h8--6--5-5h6--5----5-----------------------------------
G---------------------------------7----7--5-----------------------------
D-------------------------------------------5---7-7~--------------------
A-----------------------------------------------------------------------
E-----------------------------------------------------------------------



e-----------------------------5----5----5----5----5----5----5----5------
B------------------------------8p5--8p5--8p5--8p5--8p5--8p5--8p5--8p5---
G---5h7-7/9\7p5-7-5~-----5-7-7----7----7----7----7----7----7----7-------
D----------------------7------------------------------------------------
A-----------------------------------------------------------------------
E-----------------------------------------------------------------------


e---8p5-5-8p5-8p5-5-8p5-8p5-5-8p5-5-8p5-8p5-5-8p5-8p5-5-----------------
B------5---------5---------5-----5---------5---------5------------------
G-----------------------------------------------------------------------
D-----------------------------------------------------------------------
A-----------------------------------------------------------------------
E-----------------------------------------------------------------------


e---8(10).---8(10)---8-6-5-6-5---5--------------------------------------
B------------------------------8---8-6-8-6-5-6-5---5--------------------
G------------------------------------------------7---7-5----------------
D--------------------------------------------------------5---7-7~-------
A-----------------------------------------------------------------------
E-----------------------------------------------------------------------

 etc ...








DOWNLOAD THE COMPLETE TAB HERE



  • click 'Free Download'
  • add your e-mail address
  • you will get an e-mail with your download links (in a few seconds)
  • download the Guitar Pro 6 tab + GP5 + PDF for free
  • and that's all ...


Guitar Pro: a complete workshop for guitarists at an affordable price