20190923

JOE BONAMASSA I'LL PLAY THE BLUES FOR YOU SOLO TAB (LIVE)


Joe Bonamassa - I'll Play The Blues For You live version recorded at the Greek Theatre
There is a great guitar solo at 1:25 and it's transcribed
Download the TAB under the video



I'LL PLAY THE BLUES FOR YOU SOLO TAB

GP5 + GP6 + PDF >>

Solo 1  ( ~ 1:25)

e-----------------------------------------------------------------------
B------------------11~--------------------------------------------------
G-----------12--------------12-\----------------------------------------
D---10/12-----12--------------------------------------------------------
A-----------------------------------------------------------------------
E-----------------------------------------------------------------------


e-----------------------------------------------------------------------
B---13(15)-----13(15)-----13~-------11-13-13(15)---13(15)---(13)p11-----
G------------------------------------------------------------------12~--
D-----------------------------------------------------------------------
A-----------------------------------------------------------------------
E-----------------------------------------------------------------------


e-----------------------------------------------------------------------
B---11-13-(15)----------------------------------------------------------
G-----------------------------------------------------------------------
D-----------------------------------------------------------------------
A-----------------------------------------------------------------------
E-----------------------------------------------------------------------



e-----------------------------------------------------------------------
B---13(15)-------(13)---11(13)-------11'--------------------------------
G---x-------------------x------------x---------12p10-12~----------------
D-----------------------------------------------------------------------
A-----------------------------------------------------------------------
E-----------------------------------------------------------------------


e-----------------------13~---------------------------------------------
B---11-13(15)-11-13--11-x-----------------------------------------------
G------------------12---------------------------------------------------
D-----------------------------------------------------------------------
A-----------------------------------------------------------------------
E-----------------------------------------------------------------------


e--------8-8-(10)---8---------------------------------------------------
B---8-11------------x-11(13)-----11'-------8~---8~------\---------------
G---x----------------------------x--------------------------------------
D-----------------------------------------------------------------------
A-----------------------------------------------------------------------
E-----------------------------------------------------------------------


e--------3--------------------------------------------------------------
B---/3-----6p3----------------------------------------------------------
G--------------5-3~-----------------------------------------------------
D-------------------------5p3-5~----------------------------------------
A-----------------------------------------------------------------------
E-----------------------------------------------------------------------

 etc ...






DOWNLOAD THIS SOLO TAB IN GUITAR PRO



  • click 'Free Download'
  • add your e-mail address
  • you will get an e-mail with your download links (in a few seconds)
  • download the Guitar Pro 6 tab + GP5 + PDF for free
  • and that's all ...