20190929

SHAKIN' ARROWS BLUE ARROW TAB


The Shakin' Arrows - Blue Arrow is a beautiful instrumental guitar song
The band is a dutch rock and roll group and this song is from the '70s
Download the TAB under the video



BLUE ARROW TAB

GP5 + GP6 + PDF >>

Part 1

e----9--------9--9-/12-------10.--9.--7---------------------------------
B---10-------10-10-/14-------12.-10.--9-------5-------------------------
G-----------------------------------------------------------------------
D-----------------------------------------------------------------------
A-----------------------------------------------------------------------
E-----------------------------------------------------------------------


e-----------------------------------------------------------------------
B---6-7-------7.-9-/12-------10.-7.-5-----------------------------------
G---6-7-------7.-9-/13-------11.-7.-6-----------------------------------
D-----------------------------------------------------------------------
A-----------------------------------------------------------------------
E-----------------------------------------------------------------------


e-----------------------------------------------------------------------
B---6-7-------7.-9-/12-------10.-7.-5-----------------------------------
G---6-7-------7.-9-/13-------11.-7.-6-----------6-----------------------
D-----------------------------------------------7-----------------------
A-----------------------------------------------------------------------
E-----------------------------------------------------------------------



e-----------------------------------------------------------------------
B---3-------3.-5-h7-------5.-3.-5---------------------------------------
G---4-------4.-6-h7-------6.-4.-6---------------------------------------
D-------------------------------7---------------------------------------
A-----------------------------------------------------------------------
E-----------------------------------------------------------------------


e---------------------------------------12------------------------------
B---------------------------------------12------------------------------
G---6-------6-6-/9--------7.-6.-4-------13------------------------------
D---7-------7-7-/11-------9.-7.-6-------14------------------------------
A-----------------------------------------------------------------------
E-----------------------------------------------------------------------


e-----------------------------------------------------------------------
B---6-7-------7.-9-/12-------10.-7.-5-----------------------------------
G---6-7-------7.-9-/13-------11.-7.-6-----------------------------------
D-----------------------------------------------------------------------
A-----------------------------------------------------------------------
E-----------------------------------------------------------------------

 etc ...






DOWNLOAD THIS TAB IN GUITAR PRO



  • click 'Free Download'
  • add your e-mail address
  • you will get an e-mail with your download links (in a few seconds)
  • download the Guitar Pro 6 tab + GP5 + PDF for free
  • and that's all ...


Guitar Pro: a complete workshop for guitarists at an affordable price