20190907

SWV WEAK FINGERSTYLE GUITAR TAB


SWV - Weak acoustic fingerstyle guitar cover played by Rofel Angelo Pendon
It's arranged in standard tuning with Capo on the 5th fret
Download the TAB under the video



SWV WEAK FINGERSTYLE TAB

GP5 + GP6 + PDF >>

- Capo on the 5th fret -

Intro

e---0-------------------0-------0h1---------0---------------------------
B---------------3-------------------------------3-----------1-----------
G-----------------------------------------------------------------------
D-----------------------------------0-----------------------------------
A-----------------------------------------------------------------------
E---1---------------1-------------------------------3-------------------


e-----------------------------------------------------------------------
B---0--h1---------------1-----------0-----------------------------------
G---0-----------0-----------------------------------0-------0-----------
D-----------2-------------------2---------------------------------------
A---3-------------------------------3-----------------------------------
E---------------------------------------------------0-------x-----------


Verse

e-----------------------------------------------------------------------
B-----------------------------------------------------------------------
G-----------0---0-------0.------0-------0-------0-------0---------------
D---2--h3---------------------------------------------------------------
A-----------------------------------------------------------------------
E---0---------------x---0.------0-------------------x---0---------------



e-----------------------------------------------------------------------
B-----------------------------------1-----------------------------------
G---0-------0h2-----------------------------2---------------------------
D-------------------------------0-------------------3---------------x---
A-----------------------------------------------------------------------
E-------1---------------x---1---------------------------x---1-----------


e-----------------------------------------------------------------------
B-----------------------------------------------------------------------
G-----------0---0-------0.------0-------0-------0h2-----0---------------
D---2--h3---------------------------------------------------------------
A-----------------------------------------------------------------------
E---0---------------x---0.------0-------------------x-------------------


e-----------------------------------------------------------------------
B-----------------------------------1-----------------------------------
G---2-------------------------------------------------------------------
D-----------0-------------------2---------------2-----------------------
A-------------------3-----------------------------------------------3---
E-------1---------------x---1---------------------------x---1-----------

 etc ...