20191018

BESAME MUCHO CLASSICAL GUITAR TAB (DANIEL VOLOVETS)


Consuelo Velázquez - Besame Mucho classical guitar cover by Daniel Volovets
It's arranged in Dropped D tuning and no Capo is used
Download the TAB under the video



DANIEL VOLOVETS BESAME MUCHO TAB

GP5 + GP6 + PDF >>

- Dropped D tuning -
Intro

e--------------------------------10.---9-----------9--------------------
B----3-----------------------10----------------8-----------11---8-------
G------------2-----------10--------------------6--------------------8.--
D--------3-------2.------------------------8----------------------------
A--------------------8----------------6---------------------------------
D---0--------------------------------------------------8----------------


e----------------------------------------------------------5------------
B----3----------------------------10---9-----------9------6----6---6----
G------------2-----------8---10----------------7---------6-----6---6----
D--------3-------3.------------------------8------------5------5---5----
A--------------------8----------------7----------------0----------------
D---0-------------------------------------------------------------------


Verse

e---------------------------------------------------------0----1.-------
B----3-----------------------------------------------3------------------
G------------2-------------------3-----------2------------0----2.-------
D--------3-------3.----------3-----------3-------3---3------------------
A------------------------5----------------------------------------------
D---0----------------5---------------0--------------0-------------------



e----5---------------3--------------------------------------------------
B------------5-----------------3------3-------3-------3-----------------
G--------7-------7\---------3-------3-------3-------3---3---------------
D------------------------7--------5-----5-4-----4-3---------------------
A-----------------------------------------------------------------------
D---5-------------------------------------------------------------------


e---3-------3---3---5-------5---5---6-------6---6-/-9----10----12-\-----
B---3-------3-------4-------4-------3---------------8-------------------
G---3-------3-------5-------5-------3---------------9----10----12-\-----
D---3---------------4---------------3-----------------------------------
A-------------------0-------------------------------0-------------------
D---5-------------------------------3-----------------------------------


e----5------------------------------------------------------------------
B----------------2-------2-------2-------2----------  etc ...    -------
G------------2---------2-------2-------2---2----------------------------
D--------3-----------5-----5-3-----3-2----------------------------------
A-----------------------------------------------------------------------
D---0-------------------------------------------------------------------