20191012

GOO GOO DOLLS BETTER DAYS TAB (ACOUSTIC COVER)


Goo Goo Dolls - Better Days acoustic cover by Jamie Meyer and Regina Lund
It's played in standard tuning with a 12 string acoustic guitar
Download the TAB under the video



GOO GOO DOLLS BETTER DAYS ACOUSTIC TAB

GP5 + GP6 + PDF >>

Intro

e---10----------9-------------------------------------------------------
B---10--------------------------10--------------------------------------
G---9-------9---------------9-------------------------------------------
D---0-------0---------------0-------------------------------------------
A-----------------------------------------------------------------------
E-----------------------------------------------------------------------


e---10----------9-------------------------------------------------------
B---10----------10--------------10--------------------------------------
G---0---------------------------0---------------------------------------
D---0-------0---------------0-------------------------------------------
A---x-------------------------------------------------------------------
E---10------------------------------------------------------------------


e-----------------------------------------------------------------------
B---3-----------2-------------------------------------------------------
G---2-------2-------------------2---------------------------------------
D---2-------------------------------------------------------------------
A---0-------------------------------------------------------------------
E-----------------------------------------------------------------------



e---------------3---------------2---------------------------------------
B---3-----------3---------------3---------------------------------------
G---2-------2-----------2---2-------------------------------------------
D---0-------0-----------0---0-------------------------------------------
A---0-------------------------------------------------------------------
E-----------------------------------------------------------------------


Verse

e---10----------9-------------------------------------------------------
B---10--------------------------10--------------------------------------
G---9-------------------------------------------------------------------
D---0-------------------------------------------------------------------
A-----------------------------------------------------------------------
E-----------------------------------------------------------------------


e---10----------9---------------9---------------------------------------
B---10----------10------------------------------------------------------
G---0-------------------------------------------------------------------
D---0-------0-----------------------------------------------------------
A---x-------------------------------------------------------------------
E---10------------------------------------------------------------------


e-----------------------------------------------------------------------
B---3-----------2---------------------------3---------------------------
G---2-----------2-------------------------------2-----------------------
D---2-----------------------------------0-------------------------------
A---0-------------------------------------------------------------------
E-----------------------------------3-----------------------------------


e---------------3---------------2---------------------------------------
B---3-----------------------3-------------------3-----------------------
G---2-------2-----------2-------------------2---------------------------
D---0-----------------------------------0-------------------------------
A---0-------------------------------------------------------------------
E-----------------------------------------------------------------------

 etc ...






DOWNLOAD THIS TAB IN GUITAR PRO



  • click 'Free Download'
  • add your e-mail address
  • you will get an e-mail with your download links (in a few seconds)
  • download the Guitar Pro 6 tab + GP5 + PDF for free
  • and that's all ...


Guitar Pro: a complete workshop for guitarists at an affordable price