20191006

TOMMY EMMANUEL DIXIE MCGUIRE TAB (LIVE)


Tommy Emmanuel plays Dixie McGuire live at MSP Musique, St-Nicolas QC
There is a beautiful part between 3:32 and 4:03 and it's transcribed
Download this TAB under the video



TOMMY EMMANUEL DIXIE MCGUIRE TAB

GP5 + GP6 + PDF >>

(3:32 - 4:03)

e---------------------0-------------------------------------------------
B---5---------5-------4---------4-----------4---------------------------
G---6---------6-------------------------6---------x---------------------
D---------7-----------------7-----------7-----7-------------------------
A-----------------------------------------------------------------------
E---7-----------7-----7-----------7-------------------------------------


e---------4.----7---4---------------------------------------------------
B---------5.--------------7-------5-----4---5-----7---------------------
G---------4.--------------4-----------------------6---------------------
D---------6.----------6---6-------6-----------4-------------------------
A---------------------------4-------------------------------------------
E---0-----------0-----------------------4-------------------------------
    x           x     x     x     x     x     x


e---------4---------0-----------5-----4---------------------------------
B-------------7-----------7-----------------7---------------------------
G-------------------------6-----------------6---------------------------
D---------------------0---7-------7---------7---------------------------
A---------4-----------------0-------------------------------------------
E---6-----------6-----------------------0-----7-------------------------
    x     x     x     x     x     x     x     x



e-------------------------------------------4---------------------------
B-------------------5-------5-----------7-------------------------------
G---------4.----6-----------4-------------------------------------------
D---------6.----------6-----------6-----------4-------------------------
A---------------------------4-------------------------------------------
E---0-----------0-----------------------4-------------------------------
    x           x     x     x     x     x     x


e---2--h4-----2-------------0-------------------------------------------
B-------------2-------------------------4-------------------------------
G---3---------------3-------2-----------5-------------------------------
D---------2-----------2-----------4-----4-----4-------------------------
A---------------------------0-------------------------------------------
E---2-----------2-----------------------4-------------------------------
    x     x     x     x     x     x     x     x

 etc ...





DOWNLOAD THIS TAB IN GUITAR PRO



  • click 'Free Download'
  • add your e-mail address
  • you will get an e-mail with your download links (in a few seconds)
  • download the Guitar Pro 6 tab + GP5 + PDF for free
  • and that's all ...