20191027

WANTED DEAD OR ALIVE FINGERSTYLE TAB (TOMI PALDANIUS)


Bon Jovi - Wanted Dead Or Alive fingerstyle guitar cover played by Tomi Paldanius
It's arranged in Dropped D tuning and no Capo is used
Download the TAB under the video



WANTED DEAD OR ALIVE FINGERSTYLE TAB

GP5 + GP6 + PDF >>

 - Dropped D tuning -

Part 1

e---------13-------12-------10-------8-------5-------3---3\--1----------
B-----------------------------------------------------------------------
G-------14--14---12--12---10--10---9---9---5---5---4---4-4\--2----------
D--------------0-----------------0---------------0----------------------
A-----------------------------------------------------------------------
D---0-------------------0----------------0---------------0---0----------


e---------13-------12-------10-------8-------5-------3---3\--1----------
B-----------------------------------------------------------------------
G-------14--14---12--12---10--10---9---9---5---5---4---4-4\--2----------
D--------------0-----------------0---------------0----------------------
A-----------------------------------------------------------------------
D---0-------------------0----------------0---------------0---0----------


e-------------------------0-------------------------------0-------------
B-----------------------------3-3-----------------------------3-3-------
G---------------------------------2-------------------------------2-----
D-----------0---3'--0-----------------------0---3'--0-------------------
A---0-0-3'--------------------------0-0-3'------------------------------
D-----------------------------------------------------------------------



e-------------------------0-------------------------0-------------------
B-----------------------------3-3-------------------3-------------------
G---------------------------------2-----------------2-------------------
D-----------0---3'--0-------------------3.--3-------0-------------------
A---0-0-3'--------------------------0-0-3.--3---0---0-------------------
D-----------------------------------------------0---0-------------------


Part 2

e---------------0-------0---0-------3-----3--p1-3/5---------------------
B---5h6-----x---6-------6---6---------3---------------------------------
G-------5-7-x---7-------7---7-----------0-------------------------0-----
D-------0---x-----------0---0---------------------------0---------------
A-----------------------0-----------3-------x---------------------------
D---0-------x---0-------0---x---0-------------------5-------x---5-------
                                x                               x


e-----------------------------------------------------------------------
B---6-----3-x---3-------3---3---3h5-6.--6-------3-------3---------------
G-------5---x---0-------0---0-----------5-------2-------2-------2-------
D-------5---x---0-------0---0-----------3---0---0-------0---------------
A---3-------x-------------------------------0---0-----------------------
D---------------5-----------x---------------0---0-----------x-----------
                                                                x

 etc ...






DOWNLOAD THIS TAB IN GUITAR PRO



  • click 'Free Download'
  • add your e-mail address
  • you will get an e-mail with your download links (in a few seconds)
  • download the Guitar Pro 6 tab + GP5 + PDF for free
  • and that's all ...