20191123

BEYONCE HALO FINGERSTYLE TAB


Beyonce - Halo acoustic fingerstyle guitar cover played by Richard Armstrong
It's arranged in standard tuning with Capo on the 2nd fret
Download the TAB under the video



BEYONCE HALO FINGERSTYLE TAB

GP5 + GP6 + PDF >>

- Capo on the 2nd fret -

Intro

e-----------------------------------------------------------------------
B---0---------------1---------------0-----------------------------------
G---0---------------2---------------0--------------0--------------------
D--------------------------------------------------2--------------------
A-------------------0------------------------------3--------------------
E---3-------------------------------0-----------------------------------


e-----------------------------------------------------------------------
B---0-------0-------0-------0-----0-1-------1-------1---0---0h1p0-------
G-------0-------0-------0-----0h2-------2-------2----------------2-0----
D-----------0---------------0---------------2-----------2---------------
A-----------------------------------0---------------0-------0-----------
E---3---------------3---------------------------------------------------


e-----------------------------------------------------------------------
B-----------------------------------------------------------------------
G---0-------0-------0-------0h2-0---------------------------------------
D-------2-------2-------2---------4-2-------2-------0--0h2--0-----------
A-----------2---------------2-----------3-------3---3-----------3-------
E---0---------------0---------------------------------------------------



Verse

e-----------------------------------------------------------------------
B---------------0---0-0-0---0-----1-------------------------0-----------
G-------------------------------2-----------2-------2-2-2-------2-0-----
D-----------0---------------0-----------2-------2-----------2-----------
A---2-------------------------------0-------------0-----0---------------
E-------3-----------3---------------------------------------------------


e-----------------------------------------------------------------------
B-----------------------------------------------------------------------
G---------------0-0-0---0---0---0-2---0---------0---0-0-0---0-----------
D-----4\2---------------2---------------2-------------------------------
A-------------------2-------2-----3---------3-------3-------3---3-------
E---0-------0-----------------------------------------------------------


e-----------------------------------------------------------------------
B-------------------0-0-0---0-----1---0---------------------0-----------
G-----------------0-------------0-------2.------2p0-2---2p0-----2-0-----
D---------------0---------------------------------------2---------------
A---2-----------------------------0-----------0-----0-------0-----------
E-----------3-------3-------3-------------------------------------------

 etc ...