20191111

BIG MAMA THORNTON HOUND DOG TAB (SOLO)


Willie Mae 'Big Mama' Thornton - Hound Dog recorded back in 1952
There is a dirty blues solo around 1:05 in this version (in half-step down tuning)
Download the TAB under the video



BIG MAMA THORNTON HOUND DOG SOLO TAB

GP5 + GP6 + PDF >>

Solo ( ~ 1:05)

     E
eb---------7----7-7----7-7----7-7-----7--------0------0-----------------
Bb---------8'---9-8'---9-8'---9-8'----8(9)---------3'-0-----------------
Gb----------------------------------------------------------------------
Db----------------------------------------------------------------------
Ab----------------------------------------------------------------------
Eb---0------------------------------------------------------------------


     E
eb---------7----7-7----7-7----7-7-----7--------0------0-----------------
Bb---------8'---9-8'---9-8'---9-8'----8(9)---------3'-0-----------------
Gb----------------------------------------------------------------------
Db----------------------------------------------------------------------
Ab----------------------------------------------------------------------
Eb---0------------------------------------------------------------------


     A
eb-------7--7-----------------------------------------------------------
Bb-------8'-8'---8'-5---------5-8'----5---5-5---------------------------
Gb------------------------6-----------------------6.--------------------
Db----------------------------------------------------------------------
Ab---0------------------------------------------------------------------
Eb----------------------------------------------------------------------



     E
eb-------7--7---7-7-----7-----0-----------------------------------------
Bb-------8'-8'--9-8'----8'----0---3-0-----0-0.--------------------------
Gb--------------------------------------2-0-1.--------------------------
Db----------------------------------------0-2.--------------------------
Ab----------------------------------------------------------------------
Eb---0------------------------------------------------------------------


     B7                             A
eb---------7--7----7--7------7------------------------------------------
Bb---------8'-8'---8'-8'-----8'-----5-----5-----8'----5.----------------
Gb--------------------------------------6-------------------------------
Db----------------------------------------------------------------------
Ab----------------------------------------------------------------------
Eb----------------------------------------------------------------------


     E
eb---------7----7--7------7------0--------------------------------------
Bb---------8'---8'-8'-----8'-----0---3-0-----0-----0--------------------
Gb-----------------------------------------2-0-----0---2----------------
Db-----------------------------------------------2----------------------
Ab----------------------------------------------------------------------
Eb---0------------------------------------------------------------------

 etc ...






DOWNLOAD THIS SOLO TAB IN GUITAR PRO



  • click 'Free Download'
  • add your e-mail address
  • you will get an e-mail with your download links (in a few seconds)
  • download the Guitar Pro 6 tab + GP5 + PDF for free
  • and that's all ...