20191127

BILLY IDOL WHITE CHRISTMAS TAB (GUITAR CHORDS)


Billy Idol - White Christmas from the album called Happy Holidays (2007)
Download the TAB under the video



WHITE CHRISTMAS TAB

GP5 + GP6 + PDF >>


I'm dreaming ...

e---8---8---8---8---8---8---8---8---------------------------------------
B---8---8---8---8---8---8---8---8----8---8---8---8---8---8---8-----7----
G---9---9---9---9---9---9---9---9----7---7---7---7---7---7---7-----6----
D---10--10--10--10--10--10--10--10---9---9---9---9---9---9---9-----8----
A---10--10--10--10--10--10--10--10--10--10--10--10--10--10--10-----9----
E---8---8---8---8---8---8---8---8---------------------------------------


Just like the ones ...

e-----------------------------------8---8---8---8---8---8---8---8-------
B---6---6---6---6---6---6---6---6---8---8---8---8---8---8---8---8-------
G---5---5---5---5---5---5---5---5---9---9---9---9---9---9---9---9-------
D---7---7---7---7---7---7---7---7---10--10--10--10--10--10--10--10------
A---8---8---8---8---8---8---8---8---10--10--10--10--10--10--10--10------
E-----------------------------------8---8---8---8---8---8---8---8-------


 tree - tops glisten

e---8---8---8---8-------------------------------------------------------
B---8---8---8---8----3---3---3---3---1---1---1---1---1---1---1---1------
G---9---9---9---9----3---3---3---3---2---2---2---2---1---1---1---1------
D---10--10--10--10---2---2---2---2---3---3---3---3---3---3---3---3------
A---10--10--10--10---3---3---3---3---3---3---3---3---3---3---3---3------
E---8---8---8---8-------------------------------------------------------



Hear sleigh bells ...

e---8---8---8---8---8---8----------------------------------------------
B---8---8---8---8---8---8-----------3---3---3---3---6---6---6---6------
G---9---9---9---9---9---9---7---5---4---4---4---4---4---4---4---4------
D---10--10--10--10--10--10--9---7---5---5---5---5---5---5---5---5------
A---10--10--10--10--10--10----------5---5---5---5---5---5---5---5------
E---8---8---8---8---8---8----------------------------------------------

 etc ...







DOWNLOAD THIS TAB IN GUITAR PRO



  • click 'Free Download'
  • add your e-mail address
  • you will get an e-mail with your download links (in a few seconds)
  • download the Guitar Pro 6 tab + GP5 + PDF for free
  • and that's all ...