20191117

BILLY STRINGS BLACK MOUNTAIN RAG TAB (ACOUSTIC GUITAR SOLO)


Billy Strings plays Black Mountain Rag with an old Gibson J-35 acousic guitar
It's in standard tuning with Capo on the 2nd fret
Download the TAB under the video



BLACK MOUNTAIN RAG TAB

GP5 + GP6 + PDF >>

Part 1

e-------0-0-----0-0-------0-----0-0-------0-------0-3-----0-0---0-------
B-------1-1-----1-1-------1-----1-1-------1-------1-1-----1-1---3---/---
G---0---0-------0-0-------0-----0-0-------0-------0-0-----0-------------
D---------------2---------------2-------------------2-------------------
A-----------3-------2h3-----3-------2h3-----3-------3-------------------
E-----------------------------------------------------------------------


e-----0-5-0-3-5-3-----0-5-0-3-5-3-----0-5-0-3-5-3-----0-----------------
B--/5-------------4-5-------------4-5-------------4-5---1-------1-3/----
G---------------------------------------------------------2-0-2---------
D-----------------------------------------------------------------------
A-----------------------------------------------------------------------
E-----------------------------------------------------------------------


e-----0-5-0-3-5-3-----0-5-0-3---3-----0-5-0-3-5-3-----0---------0-------
B--/5-------------4-5-------------4-5-------------4-5---1-------1-------
G---------------------------------------------------------2-0-2---------
D-----------------------------------------------------------------------
A-----------------------------------------------------------------------
E-----------------------------------------------------------------------



e---0-----3-3-----3-----0-------0-------0-----------------------3-------
B---3/5-----5------\3---1-------1---3/5-----3-1-----1-----------1-------
G---------------------------2-------------------2p0---2-0-------0-------
D---------------------------------------------------------2-----2-------
A-----------------------------------------------------------3-----------
E-----------------------------------------------------------------------


e-------3-------5-3---0------------------0-----------------------3------
B---3/5-----0-------4---1-------1---/5-------3-1-----1-----------1------
G-------------------------0-2--------------------2p0---2-0-------0------
D----------------------------------------------------------2-----2------
A------------------------------------------------------------3---3------
E-----------------------------------------------------------------------


e-----------------------3-3-------------1-1-----------------------------
B-----------------------1-1-------------1-1-----------------------------
G---0---0---0-----------0-0-------------2-2-----------------------------
D---0h2-0h2---2-1p0-----2---0---2---3---3-------------------------------
A-------------------3-----------------------------    etc ...     ------
E-----------------------------------------------------------------------






DOWNLOAD THIS TAB IN GUITAR PRO



  • click 'Free Download'
  • add your e-mail address
  • you will get an e-mail with your download links (in a few seconds)
  • download the Guitar Pro 6 tab + GP5 + PDF for free
  • and that's all ...