20191107

CHRIS KLAFFORD IMAGINE TAB (AMERICA'S GOT TALENT 2019)


Chris Kläfford sings Imagine by John Lennon live at America's Got Talent 2019
It's in standard tuning with Capo on the 6th string
Download the TAB under the video



CHRIS KLAFFORD IMAGINE TAB

GP5 + GP6 + PDF >>

- Capo on the 6th fret - 

Intro

e-----0-----0-----0---------------0---------0---------------0-----------
B-------1-----1-------1-----0---------1-----------1---------------1-----
G---------0-----0-------0-----0---------2-----2-------2---2---2---------
D-----------------------------------3-----3-----3---3---3-------3-------
A---3---------------3-----3-----3---------------------------------------
E-----------------------------------------------------------------------


e-----------0---------------------0---------0---------------0-----------
B-----1-----------1---------0---------1-----------1---------------1-----
G-------0-----0-------0---0---0---------2-----2-------2---2---2---------
D-----------------------------------3-----3-----3---3---3-------3-------
A---3-----3-----3---3---3-------3---------------------------------------
E-----------------------------------------------------------------------


Verse

e-----------0---------------------0---------0---------------0-----------
B-----1-----------1---------0---------1-----------1---------------1-----
G-------0-----0-------0---0---0---------2-----2-------2---2---2---------
D-----------------------------------3-----3-----3---3---3-------3-------
A---3-----3-----3---3---3-------3---------------------------------------
E-----------------------------------------------------------------------



e-----------0---------------------0---------0---------------0-----------
B-----1-----------1---------0---------1-----------1---------------1-----
G-------0-----0-------0---0---0---------2-----2-------2---2---2---------
D-----------------------------------3-----3-----3---3---3-------3-------
A---3-----3-----3---3---3-------3---------------------------------------
E-----------------------------------------------------------------------


e-----------0---------------------0---------0---------------0-----------
B-----1-----------1---------0---------1-----------1---------------1-----
G-------0-----0-------0---0---0---------2-----2-------2---2---2---------
D-----------------------------------3-----3-----3---3---3-------3-------
A---3-----3-----3---3---3-------3---------------------------------------
E-----------------------------------------------------------------------


e-----------0---------------------0---------0---------------0-----------
B-----1-----------1---------0---------1-----------1---------------1-----
G-------0-----0-------0---0---0---------2-----2-------2---2---2---------
D-----------------------------------3-----3-----3---3---3-------3-------
A---3-----3-----3---3---3-------3---------------------------------------
E-----------------------------------------------------------------------


 Imagine all the people ...

e-------------------------------------------1---------------1-----------
B-----------1---------------1---------3-----------3---3-----------3-----
G-----0-----------2---0-----------0-----2-----2---------0-----0---------
D-------3-----3---------2-----2-----0-----0-----0-----------------------
A---------------------------------------------------3-----3-----3-------
E---1-----1-----1---0-----0-----0---------------------------------------


e-----3-----3---------3-----3-------------------------------------------
B-----------------3---------------3-------------------------------------
G-------------0---------------0-----------------------------------------
D-------0---------------0-----------------------------------------------
A-----------------------------------------------------------------------
E---3-----3-----3---3-----3-----3---3-----------------------------------

 etc ...