20191114

EDELWEISS CLASSICAL GUITAR TAB


Richard Rodgers - Edelweiss classical guitar cover played by Fumio Miyashita
It's arranged in standard tuning and no Capo is used
Download the TAB under the video



EDELWEISS TAB

GP5 + GP6 + PDF >>

Part 1

e---0-----------5-----------2-----------0-------------------------------
B---2-----------5-----------3-----------3-------------------------------
G---2-----------6-----------2-----------1-------------------------------
D-----------------------------------------------------------------------
A-----------------------------------------------------------------------
E-------0---0-----0-0---0-------0---0-----0-0---0-----------------------


e-----------0---7-----------5-------0-----------0-----------------------
B---2---------------5---5---5-----------3-----3---3---------------------
G---2---------------7---7---6---6-----------2---------------------------
D-------2---------6---6-------7-----------4-----------------------------
A---0-----------------------0-----------0-------------------------------
E---------------0-------------------------------------------------------


e-----------------------0---2-----------0-------------------------------
B---2-------2---2---3-----------3---3-------0---3-----------------------
G---2-----------2-2---2---------2---2-------1---1-----------------------
D-------2-------4-------------4---4-------2---2-------------------------
A---0-----------------------2-------------------------------------------
E---------------------------------------0-------------------------------



e-----------0---7-----------5-------0-----------0-----------------------
B---2---------------5---5---5-----------3-----3---3---------------------
G---2---------------7---7---6---6-----------2---------------------------
D-------2---------6---6-------7-----------4-----------------------------
A---0-----------------------0-----------0-------------------------------
E---------------0-------------------------------------------------------


e-----------0---0---2---4---5-----------5-------------------------------
B---2-----------3---3---3---2---2---2---2-------------------------------
G---2-------------4---4-----2---2---2---2-------------------------------
D-------2---------------------2---2---2---------------------------------
A---0-----------------------0-----------0-------------------------------
E---------------0-------------------------------------------------------

 etc ...






DOWNLOAD THIS TAB IN GUITAR PRO



  • click 'Free Download'
  • add your e-mail address
  • you will get an e-mail with your download links (in a few seconds)
  • download the Guitar Pro 6 tab + GP5 + PDF for free
  • and that's all ...