20191102

GUITAR KING TAB (HANK THE KNIFE AND THE JETS)


Hank the Knife & the Jets play Guitar King (1975) live at Lloyd in 2014 ...
Henk Bruysten is playing a Fender Bass VI (six string bass guitar)
Download the TAB under the video



HANK THE KNIFE AND THE JETS GUITAR KING TAB

GP5 + GP6 + PDF >>

Intro

e-----------------------------------------------------------------------
B-----------------------------------------------------------------------
G-----------------------------------------------------------------------
D-----------------------------------------------------------------------
A-------0-------0----0----------------0-------0----0--------------------
E---4'------4'---4'---4'--4'--4'--4'------4'---4'---4'--4'--4'----------


e-----------------------------------------------------------------------
B-----------------------------------------------------------------------
G-----------------------------------------------------------------------
D-----------------------------------------------------------------------
A-------0-------0----0----------------0-------0----0--------------------
E---4'------4'---4'---4'--4'--4'--4'------4'---4'---4'--4'--4'----------


Verse

e-----------------------------------------------------------------------
B-----------------------------------------------------------------------
G-----------------------------------------------------------------------
D----------------2----------------2---------0h1----4---------0h1----4---
A---0-----3h4--------0-----3h4--------2----------------2----------------
E-----------------------------------------------------------------------



e-----------------------------------------------------------------------
B-----------------------------------------------------------------------
G-----------------------------------------------------------------------
D-----------------------------------------------------------------------
A----------------2----------------2-------0-------0----0----------------
E---0-----3h4--------0-----3h4--------4'------4'---4'---4'--4'--4'------


e-----------------------------------------------------------------------
B-----------------------------------------------------------------------
G-----------------------------------------------------------------------
D----------------2----------------2---------0h1----4---------0h1----4---
A---0-----3h4--------0-----3h4--------2----------------2----------------
E-----------------------------------------------------------------------


e-----------------------------------------------------------------------
B-----------------------------------------------------------------------
G-----------------------------------------------------------------------
D--------------------------------------------------2----------------2---
A----------------2----------------2---0-----3h4--------0-----3h4--------
E---0-----3h4--------0-----3h4------------------------------------------

 etc ...





DOWNLOAD THIS TAB IN GUITAR PRO



  • click 'Free Download'
  • add your e-mail address
  • you will get an e-mail with your download links (in a few seconds)
  • download the Guitar Pro 6 tab + GP5 + PDF for free
  • and that's all ...