20191130

MAKE YOU FEEL MY LOVE TAB (ORTOPILOT)


Bob Dylan - Make You Feel My Love acoustic cover played by ortoPilot
It's arranged in standard tuning with Capo on the 7th fret
Download the TAB under the video



MAKE YOU FEEL MY LOVE ACOUSTIC TAB

GP5 + GP6 + PDF >>

- Capo on the 7th fret -

Intro

e-----------------------------------------------------------------------
B-----------1h3.-1h3.-1h3-------1p0-----3-------------------3---x-3-x---
G-----------0----0----0---------0-------2-------2.--2-----------x-2-x---
D-----------0----0----0-------------0---0-------4.--4---------4-x-4-x---
A-----------------------------------------------------------------------
E---3---------------------------------0-2-------2.--2-----------x---x-0-


e-----------------------------------------------------------------------
B---------------3-3-3---1---1p0-----1-----3-x---1-------0---------------
G---2-----------2-2-2---0---0-------0-----0-x---0-------0---------0-----
D---3---------------------------0---2-----2-x---2-----------2---2-------
A---------------------------------0-3-------x-3---------------3---------
E---1-------------------------------------------------------------------


e-----------------------------------------------------------------------
B-----------0h1--1---1---0---0-------------3-x---3~-------x-3-x---------
G--------------------------------2.--2/4-----x---0--------x-0-x---------
D---1-------------------------------------------------------------------
A---3---------------------------------------------------------x-0-------
E------------------------------------3-------x-3----------x-------------



e-----------------------------------------------------------------------
B---2---------------1.--1---x-------------------------------------------
G---0-------0.--4.--0.--0---x---0--------------------------0------------
D---2-----2---------0.--0---x---0----------------------0h2---0----------
A---0-----------------------------------------------0h2-----------------
E---------------------------x---3---------------------------------------


Verse

e-----------------------------------------------------------------------
B-----------x---3-----------x-------3-------x---3-----------x-3-x-------
G-----------x---0-----------x-------2-------x---2-----------x-2-x-------
D-----------x---0-----------x-------0-------x---0---------0-x---x-------
A-----------------------------------------------------------------------
E---3-------x---3-----------x-------2-------x---2-------2---x---x-0-----


e-----------------------------------------------------------------------
B---3-------x---3-----------x-------3-------x---3-----------x-3-x-------
G---2-------x---2-----------x-------0-------x---0-----------x-0-x-------
D---3-------x---3-----------x-------2-------x---2---------2-x-2-x-------
A-----------------------------------3-------x---3-------3---x-3-x-3-----
E---1-------x---1-----------x-------------------------------------------

 etc ...