20191218

BILLY STRINGS COCAINE BLUES TAB (THE OLD SPRUCE SESSIONS)


Billy Strings - Cocaine Blues (Let The Cocaine Be) live at the Old Spruce Sessions
It's in standard tuning with Capo on the 2nd fret
Download the TAB under the video



BILLY STRINGS COCAINE BLUES TAB

GP5 + GP6 + PDF >>

- Capo on the 2nd fret -

Intro

e-------------------------------------------------------0-0-0-----------
B---3-----3-------3-3-----3-------3-3-----3-------3-----3-3-0-----------
G---0-----------0---0-----------0---0-----------0-------0---------------
D---4h5-----5-------4h5-----5-------4h5-----5-------5-------------------
A-----------------------------------------------------------------------
E-----------------------------------------------------------------------


e-----------3.--3-----3-------------0-0-------------0-0-----------------
B---0-------3.--3-------5-3---------1-1-------------1-1-----------------
G---2--/4-----------4-------4---0-------2-0-2-0-----0---2-0-2-0---------
D-----------------------------------------------2---------------2---3---
A-----------------------------------------------------------------------
E-----------------------------------------------------------------------


e---------------------------------------3-3-------------2-2-----0-0-----
B-------3-----3-------------------------0-0-------------1-1---1-1-1-----
G-----------2---------------------------0---------------2---2-2---------
D---4-----4-----4-0-4-2-0-4-2-0-----0-------2---1---0-------0-----------
A-------------------------------2---------------------------------------
E-----------------------------------------------------------------------



e--------3.--3-----3-------------0-0-------------0-0-------------0-0----
B--------3.--3-------5-3---------1-1-------------1-1-------------1-1----
G---/4-----------4-------4---0-------2-0-2-0-----0---2-0-2-0-----0------
D--------------------------------------------2---------------2----------
A-----------------------------------------------------------------------
E-----------------------------------------------------------------------


e---0-3-3-3-3-0-----------------------------------------3-3---3-3-3-----
B---------------3-0---0---0-----------------------------0-0---0-0-0-----
G-------------------3---3---2-0-----0---------------0---0-0---0-0-0-----
D-------------------------------2p0-----------0-2p0-------------0-------
A---------------------------------------0-1/2---------------------------
E-----------------------------------------------------------------------


e-------3-----3---------3-3---3-3-3-------------------------------------
B-------0-----0---------0-0---0-0-0-------------------------------------
G-------0-----0-----0---0-0---0-0-0-------------------------------------
D-------0-------2p0-------------0---------------------------------------
A-----------------------------------------------------------------------
E---3-------------------------------------------------------------------

 etc ...