20191211

HISTORIA DE UN AMOR TAB (CLASSICAL GUITAR TABS)


Historia de un Amor classical fingerstyle guitar cover played by Thu Le
It's arranged in standard tuning and no capo is used
Download the TAB under the video



HISTORIA DE UN AMOR CLASSICAL GUITAR TAB

GP5 + GP6 + PDF >>

Intro

e------------------------------------------------------------7.---------
B---8-----8-x-8-------8---x---8.-----------------------------7.---------
G---7-----7-x-7-------7---x---7.---------9.--------------8--------------
D---9-----9-x-9-------9---x---9.--------8------------7------------------
A---7-------x-7-----------x-----------10---------9----------------------
E---------------------------------8----------7--------------------------


e-----------------------------------------------------------------------
B---7h8---8-x-8-------8---x---8.----------8------------------7.---------
G---7-----7-x-7-------7---x---7.---------9-------------------8.---------
D---9-----9-x-9-------9---x---9.--------8----------------7--------------
A---7-------x-7-----------x-----------10-------------9------------------
E---------------------------------8----------7--------------------------


Verse

e--<12>--------------7.--7.--7h8p7-5---8-----5---------5----------------
B--<12>--------------------------------------------7/8---------5--------
G--<12>----2/4---4-----------------------------5-----------5------------
D------------------------------------------7----------------------------
A--------------------------------------0-------------------------0------
E--<12>--------------------------------------------------------------6--



e-------------------5---5---5---3.--7~----3-----0-2-3-------------------
B---------------0-0-------------------------------------0---------------
G-----------5---------------------------0---0---0-2-4-----4-------------
D-------7---------------------------------------------------------------
A-----------------------------------------------------------3---3-------
E---7-----------------------7-------0-----------------------------------


e-------------------3---3---3---2.--5---2---------0-2---2---2h3p2-0-----
B---------------0-0-----------------------------3-----------------------
G-----------0-------------------------------2---------------------------
D-------2-------------------2-------0---------------------0-------------
A---3\2-----------------------------------------------------------------
E---0-------------------------------------------------------------------


e---3-----0---------0---0-----0-----2-----------2---x-------------------
B---------------1-3-------------4---------------4---x-------------------
G-------0---0-------------------------------2-------x-------------------
D---------------------------------------4-----------x-------------------
A---3-----------------------3-------2---------------x-----  etc.   -----
E-----------------------------------------------------------------------