20191205

LAURENCE JUBER IN MY LIFE TAB (NORMAN'S RARE GUITARS)


Laurence Juber plays In My Life by the Beatles live at Norman's Rare Guitars
He is playing a 1928 Martin 000-45 acoustic guitar in standard tuning
Download the TAB under the video



LAURENCE JUBER IN MY LIFE TAB

GP5 + GP6 + PDF >>

Part 1

e------------10--------------------9~-----------------------------------
B---/7----------------7---8-/-10---10~----------------------------------
G---/7---7------------7---9-/-11---9~-----------------------------------
D----0------------0-----------------------------------------------------
A------------------------------------------0---0-------0---0-------0----
E-----------------------------------------------------------------------


e------------10--------------------9~-----------------------------------
B---/7----------------7---8-/-10---10~-----------------------------0----
G---/7---7------------7---9-/-11---9~--------------------------2--------
D----0------------0-----------------------------------------------------
A------------------------------------------0---0-------0----------------
E-----------------------------------------------------------------------


e-------------------0-------2-------5---2-------------------------------
B---5-------3-------------------0---2-------2-------5-------7-----------
G---2---2-------2-------------------2-----------2-/-5-------5-----------
D---0-------------------0---------------2-----------5-------7-----------
A---------------------------------------------------5-------------------
E-------------------0---------------2-----------------------------------



e---0-----------2p0-------------------------2---2-----------------------
B---0---------------3-----------------------3---------------------------
G---0-------0---------------3-------2-------2---------------------------
D-------0---------------2-----------0-----------------------------------
A-----------------------------------------------------------------------
E---3---------------3-----------3---------------------------------------

 etc ...