20191228

REBEL SON JOHNNY TAB (ACOUSTIC GUITAR SOLO)


Rebel Son play an instrumental version of Johnny on acoustic guitar
It's in standard tuning and the chords are included too
Download the TAB under the video



REBEL SON JOHNNY ACOUSTIC TAB

GP5 + GP6 + PDF >>

Part 1

e-----------------------------------------------------------------------
B-----------------------------------------------------------------------
G-----------------------------------------------------------------------
D-----------------------------------------------------------------------
A---5/7-----------------------------------------------------------------
E-------0---------------------------------------------------------------


e-----------------------------------------------------------------------
B-----------------------------------------------------------------------
G-----------------------------------------------------------------------
D---------------------4-4h5-----5-5---5p4-------------------------------
A---5/7-7---7-7-7---7---------------------------------------------------
E-----------------------------------------------------------------------
        x


e-----------------------------------------------------------------------
B-----------------------------------------------------------------------
G-----------------------------------------------------------------------
D-----------------------------5-5p4-------------------------------------
A---5---5-5-5---5---5-----5-5-------------------------------------------
E-----------------7-----------------------------------------------------
        x



e-----------------------------------------------------------------------
B-----------------------------------------------------------------------
G-----------------------------------------------------------------------
D-----------------4-4h5---5-5-5p4-5/7-----------------------------------
A---7---7-7-7---7-------------------------------------------------------
E-----------------------------------------------------------------------
                          x


e-----------------------------------------------------------------------
B-----------------------------------------------------------------------
G-----------------------------------------------------------------------
D---7/9---9-9-9---9\7-7h9-9-9-9h10-9\7----------------------------------
A-----------------------------------------------------------------------
E-----------------------------------------------------------------------
          x               x


e-----------------------------------------------------------------------
B-----------------------------------------------------------------------
G-----------------------------------------------------------------------
D---7h9-9-9-9---7\5-5h7-7-7-7---5\4-4h5-5-5-5---4\2-2h4-4-4-4h5-5/7-----
A-----------------------------------------------------------------------
E-----------------------------------------------------------------------
        x               x               x               x


e-----------------------------------------------------------------------
B-----------------------------------------------------------------------
G-----------------------------------------------------------------------
D---7/9---9-9-7---7-7-5---5-5-4---4-4-----------------------------------
A-------------------------------------5/7-7---7-----5-5/7---------------
E-----------------------------------------------------------------------
          x       x       x       x
 etc ...