20191209

THE LOCOMOTIONS TILL TAB


The Locomotions play Till by the band called ZZ en de Maskers
Vintage instrumental guitar song from the '60s
Download the TAB under the video



THE LOCOMOTIONS TILL TAB

GP5 + GP6 + PDF >>

Part 1

e----------------------------------------0--3---0-----------------------
B---1-1-1~------------------------0-0-1-------------1---0~--------------
G-----------------------------------------------------------------------
D-----------------------------------------------------------------------
A-----------------------------------------------------------------------
E-----------------------------------------------------------------------


e------------0--3---0---------------------------------------------------
B-----0-0-0-------------0-----------------------------------------------
G---------------------------2~------------------------------------------
D-----------------------------------------------------------------------
A-----------------------------------------------------------------------
E-----------------------------------------------------------------------


e--------------1-----3------0~------------------------------------------
B-----------1----------------------------3~-----------------------------
G-----1--2--------------------------------------------------------------
D-----------------------------------------------------------------------
A-----------------------------------------------------------------------
E-----------------------------------------------------------------------



e---5-5-5~-------------------------------3/5--3--3h5--3~----------------
B----------------------------------0--1---------------------------------
G-------------------------------2---------------------------------------
D-----------------------------------------------------------------------
A-----------------------------------------------------------------------
E-----------------------------------------------------------------------


e--------------3----1--1h3--1~------------------------------------------
B--------0--1-----------------------------------------------------------
G-----2-----------------------------------------------------------------
D-----------------------------------------------------------------------
A-----------------------------------------------------------------------
E-----------------------------------------------------------------------


e--------------3/5---3--------------------------------------------------
B--------0--1------------6---5~-----------------5-----3~----------------
G-----2--------------------------------------5-----5--4~----------------
D-----------------------------------------------------------------------
A-----------------------------------------------------------------------
E-----------------------------------------------------------------------

 etc ...