20200118

I NEED TO BE IN LOVE FINGERSTYLE TAB


The Carpenters - I Need To Be In Love fingerstyle guitar cover by kunikiya55
It's arranged in Dropped D tuning with Capo on the 2nd fret
Download the TAB under the video



I NEED TO BE IN LOVE FINGERSTYLE TAB

GP5 + GP6 + PDF >>

- Capo on the 2nd fret -

Intro

e-------------------0---------------------------------------------------
B--0--1--3.-------------1----------------------------0------------------
G-----------0--------------------------0--2.-------------0--------------
D---------------2-------------------4--------0-------------------0------
A-----------3-------------------0---------------------------------------
D---------------------------0----------------5---------------3----------


e-------------------0---------------------------------------------------
B--0--1--3.-----------------------------------------0-------------------
G-----------0--------------------------0--2.-0----------0----------0----
D---------------2-------2---1-------4------------0-------------0------0-
A-----------3-------------------3---------------------------------------
D--------------------------------------------5--------------5-----------


Verse

e---0-------------------------------------------------------------------
B-------3---3---------------------------------------0-------------------
G-------------5-5.--4-----------2.--2-----------0h2---------2-----------
D-----------0---------------0---------------1-----------1-------0-------
A-----------------------------------3---------------3-------------------
D---5---------------5---------------------------------------------------



e-----------------------------------------------------------------------
B---1---0---0-------------------------------1-------0-------------------
G---------------2---2---0-----0---------2-------2.------0-------0-------
D-----------2-------------4-------3-------------------------0-----------
A---------------------------2-------------------------------------------
D---2---------------2---------------0---------------5-------------------

 etc ...