20200107

LET HER GO ACOUSTIC GUITAR TAB (LIVE)


Passenger - Let Her Go live acoustic performance at Pinkpop Festival 2013
Mike Rosenberg himself in front of thousands of people !!!
Capo on the 7th fret - download the TAB below



PASSENGER LET HER GO TAB

GP5 + GP6 + PDF >>

- Capo on the 7th fret -

Intro

e-----0-------------------0-----------0-----------------0.--------------
B---3---3-1-----1-----------------1-3---3-1-----1-----------3-----------
G-----------0h2-------2-------2-------------0h2-------2-----------0-----
D---------------3-------3-------3---------------2-------2.------0-------
A-------------------------------------------0-------0-------------------
E-----------1-------1-------1-------3-----------------------3-----------


e-----0---------------------3p0-----------0-----------------------------
B---3---3-1-----1---------1---------1h3---------1---------1-------------
G-----------0h2-------2-----------0-------------------2-----------------
D---------------3-------3-------3-------0-------2-------2---------------
A-------------------------------------------0-------0-------------------
E---3-------1-------1-------1-------3-----------------------------------


e-----------------------------------------------------------------------
B---------1-------1-----1---------0-------------------------------------
G-----2-------2---------------0-----------------------------------------
D-------2-------2-------2-------0---------------------------------------
A---0-------0-------0---------------------------------------------------
E---------------------------3-------------------------------------------



Chorus

e-----------------------------------------------------------------------
B-------1---------1-----1---------1-----0---------0-----1---------1-----
G-------------2---------------0---------------0---------------2---------
D-------3-------3-------0h2-----2-------0-------0-------2-------2-------
A-------------------3-------3-----------------------0-------0-----------
E---1-------1-----------------------3-------3---------------------------


e-----------------------------------------------------------------------
B-------1---------1-----1---------1p0---0h1-------1p0---0---------0-----
G-------------2---------------0---------------0---------------0---------
D-------3-------3-------0h2-----2-------0-------0-------0-------0-------
A-------------------3-------3-------------------------------------------
E---1-------1-----------------------3-------3-------3-------3-----------

 etc ...








DOWNLOAD THIS TAB IN GUITAR PRO



  • click 'Free Download'
  • add your e-mail address
  • you will get an e-mail with your download links (in a few seconds)
  • download the Guitar Pro 6 tab + GP5 + PDF for free
  • and that's all ...