20200131

MOLLY TUTTLE THOMPSON GUITAR DEMO TAB


Molly Tuttle's first touch on her new Thompson Brazilian Dreadnought acoustic guitar
She plays a killer country jam around 1:15 in this video
Download this TAB under the video



MOLLY TUTTLE TAB

GP5 + GP6 + PDF >>

Part 1

e-----------------------------------------------------------------------
B-------------------------------0-1-----1---3-1---------0---------------
G-------------------------0-2---------0-----------2-0-------------------
D-------------------0-1h2-----------------------------------------------
A---0---2-3---2-3-------------------------------------------------------
E-----------------------------------------------------------------------


e-----------0---------0-------------------------------------------------
B---------1-------1---------0-1-----------------------------------------
G---0h2---------2-------2---------2-0-----------------------------------
D---------------------------------------2-0-----------------------------
A---------------------------------------------3-------------------------
E-----------------------------------------------------------------------


e-------------------------------------------0---------------------------
B-------------------------------0-1-----4-----1---------1---------------
G-------------------------0-2---------0-----------2-0-------------------
D-------------------0-1h2-----------------------------------------------
A---0---2h3---2-3-------------------------------------------------------
E-----------------------------------------------------------------------



e-----------0---------0-------------------------------------------------
B---------1-------1---------0-1-----------------------------------------
G---0h2---------2-------2---------2-0-----------------------------------
D---------------------------------------2-0-----------------------------
A---------------------------------------------3-------------------------
E-----------------------------------------------------------------------


e---0---0---------------------------------------0-----------------------
B---1---1-----------------------0-1-----3/5-----------5\3---1-----------
G---0---0-----------------0-2-------------------------------------------
D---2---2-----------0-2-------------------------------------------------
A---3-----3---2-3-------------------------------------------------------
E-----------------------------------------------------------------------


e-------------0---------------------------------------------------------
B---------1---------------0-1p0-----------------------------------------
G---2-----------2---0-2---------2-0-------------------------------------
D-------------------------------------2-0-------------------------------
A-------------------------------------------3---------------------------
E-----------------------------------------------------------------------

 etc ...







DOWNLOAD THIS TAB IN GUITAR PRO



  • click 'Free Download'
  • add your e-mail address
  • you will get an e-mail with your download links (in a few seconds)
  • download the Guitar Pro 6 tab + GP5 + PDF for free
  • and that's all ...