20200125

HALLELUJAH TAB (OZIELZINHO)


Leonard Cohen - Hallelujah electric guitar cover played by Ozielzinho
It's arranged in 1 step down tuning with backing track
Download the TAB under the video



OZIELZINHO HALLELUJAH TAB

GP5 + GP6 + PDF >>

- 1 step down tuning -

Part 1

d-----------------------------------------------------------------------
A-------3-3-3~------\---3-3/5-5-5~------\-------------------------------
F---3/4---------------4-------------------------------------------------
C-----------------------------------------------------------------------
G-----------------------------------------------------------------------
D-----------------------------------------------------------------------


d-----------------------------------------------------------------------
A---------3-3-3~-------h5/8--p7---7-(8)(7)p5-5~-------------------------
F---4-------------------------------------------------------------------
C-----------------------------------------------------------------------
G-----------------------------------------------------------------------
D-----------------------------------------------------------------------


d-----------------------------------------------------------------------
A---3---3/5-------5---5-------5--4/5-------3---3---\-1---1/3~-----------
F-----------------5---5-------5--4/5-------4---4---\-2---2/4~-----------
C-----------------------------------------------------------------------
G-----------------------------------------------------------------------
D-----------------------------------------------------------------------



d---10------------------------------------------------------------------
A--------10-------------------------------------------------------------
F-------------11--------------------------------------------------------
C------------------12-------\-------------------------------------------
G-----------------------------------------------------------------------
D-----------------------------------------------------------------------


d--------------------------------------------------------------7--------
A------3-3-3~------3-3-3/5---5---5/7---\-------8-8-8~----8\7-8---8/10~--
F--3/4------------------------------------/9----------------------------
C-----------------------------------------------------------------------
G-----------------------------------------------------------------------
D-----------------------------------------------------------------------

 etc ...