20200112

THE POWER OF LOVE INSTRUMENTAL GUITAR TAB


Jennifer Rush - The Power Of Love guitar cover by Cicci Guitar Condor
Easy instrumental guitar solo played live on stage
Download the TAB under the video



THE POWER OF LOVE TAB

GP5 + GP6 + PDF >>

Verse

e-----------------------------------------------------------------------
B---------4---4-----------4---4~----------------------------------------
G---3/5---------------6-5-----------------------------------------------
D-----------------------------------------------------------------------
A-----------------------------------------------------------------------
E-----------------------------------------------------------------------


e-----------------------------------------------------------------------
B-----------4---4-------9-8---------------------------------------------
G-------5-------------------10~-----------------------------------------
D-----------------------------------------------------------------------
A-----------------------------------------------------------------------
E-----------------------------------------------------------------------


e-----------------------------------------------------------------------
B---------------------8-9-----------------------------------------------
G-------10---10~----------8---------------------------------------------
D-----------------------------10~---------------------------------------
A-----------------------------------------------------------------------
E-----------------------------------------------------------------------



e-----------------------------------------------------------------------
B---------4---4~--------------------------------------------------------
G---3/5---------------6-5-3~--------------------------------------------
D-----------------------------------------------------------------------
A-----------------------------------------------------------------------
E-----------------------------------------------------------------------


e-----------------------------------------------------------------------
B-----------4---4-----------6---4~--------------------------------------
G-------5-------------5-6-----------------------------------------------
D-----------------------------------------------------------------------
A-----------------------------------------------------------------------
E-----------------------------------------------------------------------


e-----------------------------------------------------------------------
B-----------4---4.----(9)---(8)-8---------------------------------------
G-------3/5-----------------------10~-----------------------------------
D-----------------------------------------------------------------------
A-----------------------------------------------------------------------
E-----------------------------------------------------------------------


e-----------------------------------------------------------------------
B-----------------8--9--9-------------------------8---9---9-------------
G---10---10---10----------10-10~-------------10-------------8-8~--------
D-----------------------------------------------------------------------
A-----------------------------------------------------------------------
E-----------------------------------------------------------------------


e-----------------------------------------------------------------------
B--------9/11-11~-------------------------------------------------------
G------8----------------------------------------------------------------
D---10------------------------------------------------------------------
A-----------------------------------------------------------------------
E-----------------------------------------------------------------------

 etc ...