20200103

TRISTE FINGERSTYLE TAB


Antonio Carlos Jobim - Triste fingerstyle guitar cover played by Chiba Kosei
It's arranged in standard tuning and no Capo is used
Download the TAB under the video



TRISTE SOLO GUITAR TAB

GP5 + GP6 + PDF >>

Part 1

e-------0---------0-------0-------------0---------0-------0-------------
B---0---0-----0---0---0---0-----0.--0---0-----0---0---0---0-----0.------
G---6---6-----6---6---6---6-----6.--5---5-----5---5---5---5-----5.------
D---6---------6-------6---------6.--5---------5-------5---------5.------
A---0-------0-------0-------0-------0-------0-------0-------0-----------
E-----------------------------------------------------------------------


e-------0---------0-------0-------------0---------0-------0-------------
B---0---0-----0---0---0---0-----0.--0---0-----0---0---0---0-------------
G---6---6-----6---6---6---6-----6.--5---5-----5---5---5---5-------------
D---6---------6-------6---------6.--5---------5-------5-----------------
A---0-------0-------0-------0-------0-------0-------0-------0-----------
E---------------------------------------------------------------0-------


e---0-----5-4-5.--4---2-----------0-------------------------------------
B---0-------------2-------2---3---------0-----0---0---0---0-----0.------
G---6-------------4---------------------5-----5---5---5---5-----5.------
D---6-----------------------------------5-----5---5---4---4-----4.------
A---0-------------0---------0-------0---------0-------0-------0---------
E-----------------------------------------------------------------------



e-----------5-4-5.--4---2-----------------------------------------------
B---0---------------2-------2---3---5-----------5.--3-----------2-------
G---6---------------4-----------------------4---4.--3-------3---3-------
D---6-----------------------------------6-------6.--2---2---2---2-------
A-----0-------------0---------0-------4-------4-------------------------
E-----------------------------------------------------2-------2---------


e-------2-------2.------------------0---------0-4/6-7-----------5/------
B---3---3---5-------5---3.--2---------------2---------------7---7/------
G---2---2-----------4---4.--4---4.------1h2-------------5-------5/------
D---4---------------3---3.--3-------------------------------------------
A-----2-------2-------4-------------------------------6-------6---------
E-----------------------------3-------2---------------------------------

 etc ...







DOWNLOAD THIS TAB IN GUITAR PRO



  • click 'Free Download'
  • add your e-mail address
  • you will get an e-mail with your download links (in a few seconds)
  • download the Guitar Pro 6 tab + GP5 + PDF for free
  • and that's all ...